Smriot - Over And Over Again Chords & Tabs

 

Over And Over Again Chords & Tabs

Smriot Chords & Tabs

Version: 1 Type: Tab 0 ratings
1 star 2 stars 3 stars 4 stars 5 stars
comments

Over And Over Again Tab

   
This is my first tab i'm pretty sure i'm about 90% so hope its' good people, SMRiot Rock!!!

The intro riff palmuting, also verse one strummed:
E-------------------------
B-------------------------
G-------------------------
D-555777999---555777999---
A-333555777999333555777999
E----------777---------777
This is steady and doesn't pause till the chorus then stums 

A-7-
E-5-
and cuts into the chorus riff without lyrics
[ Tab from: http://www.guitartabs.cc/tabs/s/smriot/over_and_over_again_tab.html ]
E-------------------------------------
B-------------------------------------
G-------------------------------------
D-3-33----5-55----3-33----5-55--------
A-5-55-33-7-77-33-5-55-33-7-77-333-555
E------55------55------55------555-777
                               --  --
                               PM  PM
Chorus Riff
E-------------------------------------
B-------------------------------------
G-------------------------------------
D-5-55----7-77----5-55----7-77--------
A-3-33-55-5-55-55-3-33-55-5-55-56765-
E------33------33------33------34543
                               -----
                                PM

Second Verse just repeat:
E---------------------------
B---------------------------
G---------------------------
D-55555---------44444-------
A-33333--55555--22222--77777
E--------33333---------55555

Interlude!:

E--------------------------------
B--------------------------------
G--------------------------------
D-5-55-55---------9-99-99-7-77-77
A-3-33-33-5-55-55-7-77-77-5-55-55
E---------3-33-33----------------




Thanx your man, Scammer!




Comments