Smoother - Eastside Chords & Tabs

 

Eastside Chords & Tabs

Smoother Chords & Tabs

Version: 1 Type: Tab 0 ratings
1 star 2 stars 3 stars 4 stars 5 stars
comments

Eastside Tab

   
Artist: SMOOTHER
Song: eastside
Tabbed by: Pomogh

Intro & verse
   E      E?       A      A?        ---> I don't know the chords name??
e|---------------------------------|
B|-9-9-99-7-7-7-77--------5-5-5-55-|
G|-9-9-99-7-7-7-77-6-6-66-5-5-5-55-|
D|-9-9-99-6-6-6-66-7-7-77-4-4-4-44-|
A|-7-7-77-7-7-7-77-7-7-77-5-5-5-55-|
E|-----------------5-5-55----------|

>Before bridge /=slide up
e|---------------------------------|
B|-9-9-99-7-7-7-77-----------------|
G|-9-9-99-7-7-7-77-6-6-66----------|
D|-9-9-99-6-6-6-66-7-7-77----------|
A|-7-7-77-7-7-7-77-7-7-77-5432/10--|
E|-----------------5-5-55----------|



bridge 1
   G          B            E           ---> You can figure out the rhythem
e|------------------------------------|
B|-------------------------9----------|
G|-4----------7------------9----------|
D|-5----------9------------9----------|
A|-5----------9------------7----------|
E|-3----------7-----------------------|
    "now i'm getting into you..."(*)
[ Tab from: http://www.guitartabs.cc/tabs/s/smoother/eastside_tab.html ]
fill 1(*)
e|--------------------------|
B|--------------------------|
G|--------------------------|
D|----/5-4-5----------------|
A|-----------2-0------------|
E|--------------------------|
  "you......"

bridge 2
   A        B         C
e|----------------------------------|
B|--------------------5-------------|
G|-4--------6---------5-------------|
D|-7--------9---------5-------------|
A|-7--------9---------3-------------|
E|-5--------7-----------------------|
    "And I feel..lll wild.."

Chorus
   E                        C#    A
e|----------------------------------------|
B|-9------------------------6-------------|
G|-9------------------------6-----4-------|
D|-9------------------------6-----7-------|
A|-7------------------------4-----7-------|
E|--------------------------------5-------|
      "Meet me on the eastside......"

That's it, it not 100% right, but i think its close enough to the song.
email me at jombl0@yahoo.com



Comments