Smoother - Eastside Chords & Tabs

 

Eastside Chords & Tabs

Smoother Chords & Tabs

Version: 1 Type: Bass Tab 0 ratings
1 star 2 stars 3 stars 4 stars 5 stars
comments

Eastside Bass Tab

Artist: SMOOTHER
Song: eastside
Tabbed by: Pomogh

p=pull
/=slide up
\=slide down

Intro & verse
               p p p     p  p p p p
G|--------------------------2-4-5-7-|
D|-------------4-5-6-----7----------|
A|-7-7-77------------------0-2-3-5--|
E|--------0-0h2-3-4-5-5-5-----------|

before the bridge, the verse a bit different, like this
               p p p    
G|----------------------------------|
D|-------------4-5-6----------------|
A|-7-7-77---------------------------|
E|--------0-0h2-3-4-5-5-55*---------|
  (*)-->the bass stopped and continued with guitar
[ Tab from: http://www.guitartabs.cc/tabs/s/smoother/eastside_btab.html ]
Bridge
G|--------------------------------------|
D|--------------------------------------|
A|-------------------7-7--77--77--77----|
E|-3-3-333/-7-7-777/-----7---7---7---7\-|

G|--------------------------------------|
D|--------------------------------------|
A|-------------------3-3--33--33--33/---|
E|-5-5-555/-7-7-777/-----3---3---3------|

Chorus
        p                   p p p p
G|------9-------------------2-4-5-7-|
D|----------6---6-------------------|
A|-7-7-7--7--979-974-4-424-0-2-3-5--|
E|----------------------------------|

There are some changes throughout the song, but it only depend on your timing.
email me at jombl0@yahoo.com
Comments