Smooth Friction - Sulid Ug Lawas Chords & Tabs

 

Sulid Ug Lawas Chords & Tabs

Smooth Friction Chords & Tabs

Version: 1 Type: Bass Tab

Sulid Ug Lawas Bass Tab

im sean peralta and ds is my tab...
go ADB go!

intro:wala kng gawin sundan mo lng ang lead nu na magaling mag gitara...(pahuway sa dre na part)

verse and after chorus:follow d guitar
|-------------------------------------------------------------------|
|-------------------------------------------------------------------|
|-------------5-5x--5555--------------------------------------------|
|--5-5x--1-1x-------------------------------------------------------|

pre-chorus:bilisan nyo sa may 5 banda(sunod sa hawd mo gitara)
|-----------------------------------------|
|-----------------------------------------|
|---------------5~------333-----2h3p2-----|
|--555555x-111------111-----111-----------|
[ Tab from: http://www.guitartabs.cc/tabs/s/smooth_friction/sulid_ug_lawas_btab.html ]
chorus:follow d guitar strummings(sunod lagi sa master na hawd sa gitara)
|-------------------------------------------------|
|-------------------------------------------------|
|--33333333-22222222------------------------------|
|-------------------1111111111111111--------------|
salang,lacambra,panares,gimeno,jolampong,dioso,babas,ausa
|-------------------------------------------------|
|-------------------------------------------------|
|--33333333-22222222------------------------------|
|-------------------1111111111111111---44444444---|
tulio,gaite,bataller,remollo,salang,peralta
|-----------------------------------------|
|-----------------------------------------|
|--3-3-33--------3-3-33-------------------|
|---------1-1-11--------1-1-1~~~~~--------|

dats most of it...
special tnx to ADB and ASAIA my band..
wayasean@hotmail.com -frnster