Smoking Popes - Paul Chords & Tabs

 

Paul Chords & Tabs

Smoking Popes Chords & Tabs

Version: 1 Type: Bass Tab

Paul Bass Tab

Song: Paul
Artist: Smoking Popes
Album: Destination Failure (1997)
Bass Player: Matt Caterer
Tabbed By: Adam Simmons (numbchuck01@hotmail.com)

Key:
> = Strum
\ = Slide Down

Main  Riff / Intro

Part A (0:28) "and when the sun is over..."
   
G----------------------------|
D----------------------------|
A-----7-----5-4-----7-----5--|
E-5-7---5-7-----5-7---5-7----|

Part B (0:45) "chocolate eyes, at one time melting in mind..."

G--------------|
D--------------|
A-9-------7----|
E---9-4-5---7--|

Chorus (0:55) "she'll say i love you paul..."

G--------------------------|
D--------------------------|
A----2>----2>-4>-0>----2>--|
E-0>----0>----------2>-----|

Verse (1:12) "and now everything is riding..."
[ Tab from: http://www.guitartabs.cc/tabs/s/smoking_popes/paul_btab.html ]
G-----------------------------------------------------------------|
D-----------------------------------------------------------------|
A---------7-7-7-7-7---------5-5-5-5-5-4-4-4-------------7-7-7-7-7-|
E-5-5-7-7-----------5-5-7-7-----------------5-5-5-7-7-7-----------|

G-------------------|
D-------------------|
A---------5-5-5-5-5-|
E-5-5-7-7-----------|

Prechorus (1:29) "some people say that the answer..."

G------------------------------------------|
D---------------------------------------9\-|
A-9-9--------------7-7-7-7-7---------------|
E------9-9-4-4-5-5------------7-7-7-7-7----|

*Repeat Chorus*

*During Solo Follow Same Patern For Verse (Differant Rhythm)*

*Repeat Part A* (2:15) "can you tell me where to find me?"

*Repeat Part B* (2:32) "broken dreams and a heart..."

*Repeat Chorus* x2

Ending (3:16)

G---------------------|
D-----------------2-2-|
A---------3-3-2-0-----|
E-5-5-7-7-------------|

I love you Paul!