Smokey Robinson - Tears Of A Clown Chords & Tabs

 

Tears Of A Clown Chords & Tabs

Smokey Robinson Chords & Tabs

Version: 1 Type: Bass Tab 0 ratings
1 star 2 stars 3 stars 4 stars 5 stars
comments

Tears Of A Clown Bass Tab

Hey guys, I got this out of the summer 2004 Total gutiar bass special, and it seems
to be right to me :D

Verse:
G:-----------------|----------------|
D:------3-4--------|------4---------|
A:-4--6------------|-4--6-----6-4-4-|
E:-----------4-6-7-|----------------|
[ Tab from: http://www.guitartabs.cc/tabs/s/smokey_robinson/tears_of_a_clown_btab.html ]
Pre-Chorus: (x4)
G:------6----------|-------------|
D:--------4----4---|-----4-------|
A:-4---------------|-2---------4-|
E:-----------------|-------2-----|

Chorus:
G:-----------------|-----------------|-----------------|--------|
D:-------6---6-----|-------7-7-7-----|-------8-8-8-----|-----4--|
A:-----------------|-----------------|-----------------|--------|
E:-4-4-4---4---4-4-|-5-5-5-------5-5-|-6-6-6-------6-0-|-2------|
Comments