Smokescream - Why Chords & Tabs

 

Why Chords & Tabs

Smokescream Chords & Tabs

Version: 1 Type: Tab 0 ratings
1 star 2 stars 3 stars 4 stars 5 stars
comments

Why Tab

Guitar Tab                                                      u = bend up
Artist: Smokescream                                      p = pull-off
Song:  Why                                                     h = hammer-on

Intro
-----------------------------------------------------------------
-----------------------------------------------------------------
9-9-9-9-7-8-7-5-5-3-5  9-9-9-9-7-8-7-5-5-7-5  9-9-9-9-7-8-7-5-5-5
9-9-9-9-7-8-7-5-5-3-5  9-9-9-9-7-8-7-5-5-7-5  9-9-9-9-7-8-7-5-5-5
7-7-7-7-5-6-5-3-3-1-3  7-7-7-7-5-6-5-3-3-5-3  7-7-7-7-5-6-5-3-3-3

-----------------------------------------------------------------
---------------------------4-4------5-5-------6-6-6-6-6-6-6-6----
6-6-5-5-4-4-5-5-3-4-4-4-4-5-5-5-5-6-6-6-6-6-6-6-6-6-6------------
6-6-5-5-4-4-5-5-3-4-4-2-2-5-5-3-3-6-6-4-4-4-4-4-4-4-4------------
4-4-3-3-2-2-3-3-1-2-2------3-3------4-4--------------------------

Verse
--------------------------------------------------------------
--------------------------------------------------------------
7-8-9-7-8-9-7-8-9-9-8-7-5-6-7-5-6-7-5-6u-6-5-3-4-5-3-4-5-3-4-5
--------------------------------------------------------------
--------------------------------------------------------------

--------------------------------------------------------------
--------------------------------------------------------------
5-4-3-5-7-6-5-7-6-5-7u-6-5-7-8-9-7-8-9-7-8-9-9-9-9-9-9-9-9----
--------------------------------------------------------------
--------------------------------------------------------------

Pre-Chorus
--------------------------------------------------------------
--------------------------------------------------------------
3-3-4-5-4-5-4-3-3-4-3-3-3-3-3-3-4-5-4-5-4-3-3-4-3-------------
--------------------------------------------------------------
--------------------------------------------------------------
[ Tab from: http://www.guitartabs.cc/tabs/s/smokescream/why_tab.html ]
Chorus
----------------------------------------------------------------------------
----------------------------------------------------------------------------
9-9-8-5-5-5-5-8-8-9-3-3-3-3-9-9-7-5-5-5-5-9-9-7-3-3-3-3---------------------
9-9-8-5-5-5-5-8-8-9-3-3-3-3-9-9-7-5-5-5-5-9-9-7-3-3-3-3---------------------
7-7-8-3-3-3-3-6-6-7-1-1-1-1-7-7-5-3-3-3-3-7-7-5-1-1-1-1---------------------
Riff
----------------------------------------------------------------------------
----------------------------------------------------------------------------
------------------------------------------------------------1-2-------------
-----------------1-2-----------------3-2-0-0-2-0-3-2-0-----0-0-2-0----------
0-0-2-0-3-2-0-----0-0-2-0-3-2-0---------------------------------------------

--------------------------------------------------------------------------
--------------------------------------------------------------------------
-------3-2----------------------------------------------------------------
3-2-0---------------------------------------------------------------------

                                                                                             Repeat again




Solo

14u-14u-12-12-------------------------10-9----------------------
------------------14-12-14-12-10-7-10-----9h10p9-7-10-12-14u-12-
----------------------------------------------------------------
----------------------------------------------------------------
----------------------------------------------------------------

---12-14u-14u-14u-12---------------------------10-9---------------
14-----------------------14-12-14-12-10-7-9-10-----9h10p9-7-10-12-
------------------------------------------------------------------
------------------------------------------------------------------
------------------------------------------------------------------


14u-12-14-12----12-----------------------------------------------------
-----------------14----14-12-14-12---12--------------------------------
---------------------------------------14---14-12-14-12---12-----------
------------------------------------------------------------14---14-12-
-----------------------------------------------------------------------

Comments