Smiths - Some Girls Are Bigger Than Others Chords & Tabs

 

Some Girls Are Bigger Than Others Chords & Tabs

Smiths Chords & Tabs

Version: 2 Type: Tab 0 ratings
1 star 2 stars 3 stars 4 stars 5 stars
comments

Some Girls Are Bigger Than Others Tab

THE SMITHS
SOME GIRLS ARE BIGGER THAN OTHERS
=================================

Music by Johnny Marr.
Based on the Brixton '86 concert.
Live version: capo 4th fret.
Just the basic pattern, feel free to improvise around it.
[ Tab from: http://www.guitartabs.cc/tabs/s/smiths/some_girls_are_bigger_than_others_tab_ver_2.html ]
e|-----0-----------|---0-------------|---------0-------|-------0---------|
B|---------0-------|-------0---------|-----4-----------|---4-------4-----|
G|-----------------|-----------4---4s|-6-------------0-|---------------2s|
D|---6---------6s4-|-----------------|---6---6---6-6---|-4---4---4---4---|
A|-4-----4---4-----|-2---2---2---2---|-----------------|-----------------|
E|-----------------|-----------------|-----------------|-----------------|

e|---------0-------|-------4---------|  ---4-------------|-----------------  |
B|-----4-------4---|-----------4-----|  -------5p4-------|---5-----7-------  |
G|-4-------------4-|-----4---------0-|o -----------4---6-|-------------8--- o|
D|---6---6---6-----|---6-----6---6---|o ---------------7-|-------9---9---9- o|
A|-----------------|-----------------|  -4---------------|-----------------  |
E|-----------------|-----------------|  -----------------|-----------------  |

End of chorus: [022100]

Tabbed by Daniel Varhegyi.
Comments: burgberger(at)freemail(dot)hu
Comments