Smiths - Reel Around The Fountain Chords & Tabs

 

Reel Around The Fountain Chords & Tabs

Smiths Chords & Tabs

Version: 1 Type: Tab 0 ratings
1 star 2 stars 3 stars 4 stars 5 stars
comments

Reel Around The Fountain Tab

   
#----------------------------------PLEASE NOTE---------------------------------#
#This file is the author's own work and represents their interpretation of the #
#song. You may only use this file for private study, scholarship, or research. #
#------------------------------------------------------------------------------##
From: shruew@cyclone.xnet.com
Subject: Smiths - Real.Around.the.Fountain.tab
To: guitar@nevada.edu
Date: Tue, 7 Jun 1994 04:40:27 -0500 (CDT)

 
REEL AROUND THE FOUNTAIN
 
As far as Smiths songs go, this is somewhat easy.
chords are picked through, bass tab on the 
bottom                            
capo up two frets (so when you see an E, it's like playing a D)
 
       A                                   E
g------------------------------------------------------------
d------------------------------------0-----2----------2-2--2-
a------0----0---0---------0---0---4--------------------------
e-1----------------------------------------------------------

             F#m                D         A
g-----------------------------------------------------------------
d-2--2-2-0---------------------0--0-0-----------------------------
a----------4----------4---------------4---0---0-0--0--0---0-0-----
e------------2--2--2-------2------------2-----------------------0-

                                       E
g--------------------------------------------------------
d-------------------------------0------2----------2-2--2-
a-0----0---0---------0---0--4----------------------------
e--------------------------------------------------------

                   F#m                               A
g-----------------------------------------------------------------
d-2-------2-2-0-4---------------0------`-0------------------------
a--------------------------4--------------------4----0---0-0---0--
e------------------2--2--2---2---------------------2--------------
       A  G#m Gmaj7                    F#m       Bm
              Reel around the fountain       
g--------------------------------------------------------------------
d--------------------------------------------------------------------
a-0----0-----------------------------------------2----------2--------
e----2----4---3---------------3--3--3--2--2-2--2----------------2---2

               Gmaj7                     F#m           E
g------------------------------------------------------------
d------------------------------------------------------------
a-2--2-2--0-0--------------------------4---------------------
e--------------3--3---3-3--3--3--3-3-----2--2-2--2--2--0--0--
[ Tab from: http://www.guitartabs.cc/tabs/s/smiths/reel_around_the_fountain_tab.html ]
  A                        E  F#m      A
g------------------------------------------------------
d---------0----------------2---------------------------
a-0--4------------4--------------------0-0-4-------4---
e-----------------------------2--2-3-------------------


  E    D     A                          E
g------------------------------------------------------------
d-2----0-----------------------------------------------------
a--------4-2-0-----0-0-2--2----0-----------------------------
e-----------------------------------0---4-------------4-4----

            D                    E   A
g------------------------------------------------------------
d-----------0-------0-------0--0-2-2-------------------------
a-0-------------------0---0----------0-----4-0-----------4---
e-----------------------2------------------------------------

  E   F#m    A               E      D     A
g-------------------------------------------------------------
d-2--------------------------2------0-------------------------
a------------0---0----4----4----------4-2-0----0-0--2-2----0--

e-----2--2-4--------------------------------------------------

         E                  D                              Bm7
g-------------------------------------------------------------
d---------------------------0--------------0-------0-0--------
a----------------------0---------------------0---0----0-0--2--
e------0-4------4-4----------------------------2--------------


                             D                        Bm7
g-----------------------------------------------------------------
d----------------------------0-0----0--------0--0-----------------
a-2---0----2-------2---0--------------0---0-------0---0-2-2---0---
e---2---2------------2----2-------------2-----------2-------2---2-
             D                   Bm7                   D
g--------------------------------------------------------
d------------0--0-------0--0---------------------------0-
a-2--2---0--------0---0------0---0-2--2---0----2---0-----
e------2---2--------2----------2--------2---2----2---2---
           E
                   It's..(next verse)
g----------------------
d--0-------2--2-2--2---
a----0---0-----------4-
e------2---------------              
 
There ya go!  A quick rap up pf the chords (remember, capo up two 
frets.  All numbers are counted from the second fret (i.e., second 
fret = 0).
  A E F#m D G#m Gmaj7 Bm Bm7
e-3-4-0---0-4---0-----0--0--
b-0-5-0---1-4---1-----1--1--
g-0-4-0---0-4---2-----2--0--
d-0-0-2---2-6---3-----2--2--
a-2-0-----3-----------------
e-3-------------------------
                            
 
enjoy
shruew@cyclone.xnet.com
Comments