Smiths - Please Please Please Chords & Tabs

 

Please Please Please Chords & Tabs

Smiths Chords & Tabs

Version: 1 Type: Tab 0 ratings
1 star 2 stars 3 stars 4 stars 5 stars
comments

Please Please Please Tab

   
#----------------------------------PLEASE NOTE---------------------------------#
#This file is the author's own work and represents their interpretation of the #
#song. You may only use this file for private study, scholarship, or research. #
#------------------------------------------------------------------------------##
From rec.music.makers.guitar.tablature Sat May 14 11:29:42 1994
Newsgroups: rec.music.makers.guitar.tablature
Path: news.tcd.ie!ieunet!EU.net!howland.reston.ans.net!vixen.cso.uiuc.edu!uchinews!quads!kjohn
From: kjohn@quads.uchicago.edu (SINE QUA NON)
Subject: TAB: Please Let Me Get What I Want
Message-ID: 
Sender: news@uchinews.uchicago.edu (News System)
Reply-To: kjohn@midway.uchicago.edu
Organization: University of Chicago
Date: Fri, 13 May 1994 21:25:40 GMT
Lines: 46


"Please Please Please Let Me Get What I Want" - The Smiths

w/capo on 2nd fret


 Dmaj7 A5  D   A5 F#m G/F# A5  ?   A   G   A5
E -2---5---2---5---2---2---5---5---5---3---5---
B -2---5---3---5---2---3---5---3---2---3---5---
G -2---2---2---2---2---4---2---2---2---4---2---
D -4---2---4---2---4---5---2---2---2---5---2---
A -5---X---5---X---4---5---X---X---X---5---X---
E -----5---2---5---2---3---5---5---5---3---5---
[ Tab from: http://www.guitartabs.cc/tabs/s/smiths/please_please_please_tab.html ]
               G/F#    A5
E --------------2---2--5-
B --------------3---2--5-
G -----2-----2--4---4--2-
D ---4-----2----5---5--2-
A -5-----4------5---5--X-
E --------------3---3--5-

   |------------play twice------|                    Dmaj7
E -------------------------------------------------5---2-
B -3-p-2--3-p-2--3-sl-5-sl-3--2----7-5-3-5---3-2-------2-
G -4-p-2--4-p-2--4-sl-6-sl-4--2-2----------4-----2-----2-
D ------------------------------4----------------------4-
A -----------------------------------------------------5-
E -------------------------------------------------------


ending:

  F#5                      Bm  Bm          G       A5
E -----4---2---2---2---2---2---7---9--10---3---2---5---|
B -----2---2---5---3---2---3---7---7---7---3---2---5---|
G -----2---2---2---2---2---4---7---7---7---4---4---2---|
D -4---4---4---4---4---4---4---9---9---9---5---5---2---|
A -4---4---4---4---4---4---2---9---9---9---5---5---X---|
E -2---2---2---2---2---2-------7---7---7---3---3---5---|

-- 
----=----=----=----=----=----=----=----=----=----=----=----=----=----=----=----
"Faith is the substance of things hoped for, the evidence of things not seen"
							-HEBREWS
--=----=----=----=----=----=----=----=----=----=----=----=----=----=----=----=-

Comments