Smiths - Please Please Please Let Me Get What I Want Chords & Tabs

 

Please Please Please Let Me Get What I Want Chords & Tabs

Smiths Chords & Tabs

Version: 1 Type: Tab 0 ratings
1 star 2 stars 3 stars 4 stars 5 stars
comments

Please Please Please Let Me Get What I Want Tab

   
Note; this is the same as someone elses, but they had the numbers wrong with the capo and such. With the capo on II, ‘0’ means open. Cool song!

"Please Please Please Let Me Get What I Want" - The Smiths

w/capo on 2nd fret


 Dmaj7 A5  D   A5 F#m G/F# A5  ?   A   G   A5
E -0---3---0---3---0---0---3---3---3---1---3---
B -0---3---1---3---0---1---3---1---0---1---3---
G -0---0---0---0---0---2---0---0---0---2---0---
D -2---0---2---0---2---3---0---0---0---3---0---
A -3---X---3---X---2---3---X---X---X---3---X---
E -----3---0---3---0---1---3---3---3---1---3---

               G/F#    A5
E --------------0---0--3-
B --------------1---0--3-
G -----0-----0--2---2--0-
D ---2-----0----3---3--0-
A -3-----2------3---3--X-
E --------------1---1--3-
[ Tab from: http://www.guitartabs.cc/tabs/s/smiths/please_please_please_let_me_get_what_i_want_tab.html ]
   |------------play twice------|                    Dmaj7
E -------------------------------------------------3---0-
B -1-p-0--1-p-0--1-/-3-/-1--0----5-3-1-3---1-0---------0-
G -2-p-0--2-p-0--2-/-4-/-2--0-0----------2-----0-------0-
D ------------------------------2----------------------2-
A -----------------------------------------------------3-
E -------------------------------------------------------


ending:

  F#5                      Bm  Bm          G       A5
E -----2---0---0---0---0---0---5---7---8---1---0---3---|
B -----0---0---3---1---0---1---5---5---5---1---0---3---|
G -----0---0---0---0---0---2---5---5---5---2---2---0---|
D -2---2---2---2---2---2---2---7---7---7---3---3---0---|
A -2---2---2---2---2---2---0---7---7---7---3---3---X---|
E -0---0---0---0---0---0-------5---5---5---1---1---3---|


Fixed up by Steve
Comments