Smiths - I Dont Owe You Anything Chords & Tabs

 

I Dont Owe You Anything Chords & Tabs

Smiths Chords & Tabs

Version: 1 Type: Bass Tab

I Dont Owe You Anything Bass Tab

   
I don't owe you anything

[00:00] Intro A
G |--------------------------------|--------------------------------|
D |--------------------------------|--------------------------------|
A |-5---------------5---5----------|-2-----------2---2~~------------|
E |-------------5---------------0--|--------------------------------|

[00:04] Verse A
G |--------------------------------|--------------------------------||
D |--------------------------------|--------------------------------||
A |-----------------4---4---2------|-------------4-------4---2------||
E |-0-----------0------------------|-0------------------------------|| 2x

[00:13] Verse A (High E)
G |--------------------------------|--------------------------------|
D |--------------------------------|-------------------------2------|
A |-----------------4---4---2------|-------------4-------4----------|
E |-0-----------0------------------|-0------------------------------|

[00:17] Verse End
G |--------------------------------|--------------------------------|
D |-----------------4---4---2------|-------------6-------6----4-----|
A |-0-----------0---------------0--|-2------------------------------|
E |--------------------------------|--------------------------------|

[00:21] Repeat the above (without Intro)

[00:38] Verse A (High E)
[00:42] Verse End

[00:46] Verse C
G |--------------------------------|--------------------------------|
D |--------------------------------|--------------------------------|
A |-----------------4---4---2------|--------------------------------|
E |-0-----------0------------------|-0-----------0-------0---2---0--|

[00:51] Intro B (Just To Hear You Say...)
G |--------------------------------|--------------------------------|
D |--------------------------------|-------------------------2------|
A |-5---5-----------5---5----------|-2---2-------2---2---4-------4--|
E |-------------5---------------0--|--------------------------------|

[00:55] Repeat the above again (replace Intro B with C)
[ Tab from: http://www.guitartabs.cc/tabs/s/smiths/i_dont_owe_you_anything_btab.html ]
[01:07] Intro C (No I don't want to go out...)
G |--------------------------------|--------------------------------|
D |--------------------------------|--------------------------------|
A |-5---5-----------5---5----------|-2---2-------2---2-------2---3--|
E |-------------5---------------0--|---------------------0----------|

[01:12] Bridge
G |--------------------------------|---------------------4----------|
D |-----------------2---2---1------|-----------------2-------1---2--|
A |-4-----------4---------------2--|-4-----------4------------------|
E |--------------------------------|--------------------------------|

[01:12] Verse End, A
 
[01:25] Chorus
G |--------------------------------|--------------------------------|
D |-----------------------------2--|-----1--------------------------|
A |--------------------------------|-------------0---0--------------|
E |-4-----------4---4--------------|--------------------------------|

G |--------------------------------|--------------------------------|
D |--------------------------------|--------------------------------|
A |-----------------------------4--|-----2-------4---4--------------|
E |-0-----------0---0--------------|-----------------------------0--|

G |--------------------------------|--------------------------------|
D |-----------------------------2--|-----1--------------------------|
A |--------------------------------|-------------0---0-----------0--|
E |-4-----------4---4--------------|--------------------------------|

Order:
[00:00] See Above

[01:37] Intro A
[01:42] Verse A,A,A (High E),End
[01:54] Verse A,A,A (High E),End
[02:12] Verse A (High E),End,C,Intro A
[02:28] Verse A (High E),End,C,Intro C
[02:45] Bridge
[02:49] Verse End,A
[02:58] Chorus

[03:10] Intro B
[03:14] Verse A,A,A (High E),End
[03:28] Verse A,A,A (High E),End
[03:38] Verse A (High E),End,C,Intro C