Smiths - Handsome Devil Chords & Tabs

 

Handsome Devil Chords & Tabs

Smiths Chords & Tabs

Version: 1 Type: Bass Tab 0 ratings
1 star 2 stars 3 stars 4 stars 5 stars
comments

Handsome Devil Bass Tab

This Song is awesome!!

intro

G|--------|--------|--------|--------|--------|
D|--------|--------|--------|--------|--------|
A|--------|--------|-----7--|--------|-9------|
E|79979979|979-977-|5-55----|0-55-77-|7--777--|

bridge
[ Tab from: http://www.guitartabs.cc/tabs/s/smiths/handsome_devil_btab.html ]
G|--------|--------|--------|--------|
D|--------|--------|--------|--------|
A|--7-----|-9------|7-------|--------|
E|5---5--7|---7--9-|--9-7-9-|7-------|

chorus

G|--------|--------|--------|
D|--------|--6-----|------6-|
A|--7-----|-6----7-|-----6--|
E|5---5-4-|4---5---|5-4-4---|

a hope that you'll enjoy playing this song as much as i do..
see ya bassists :)


  ..::tabed by MLaZz::..
..::mlazz2@hotmail.com::..
Comments