Smiths - Hand In Glove Chords & Tabs

 

Hand In Glove Chords & Tabs

Smiths Chords & Tabs

Version: 1 Type: Bass Tab

Hand In Glove Bass Tab

   
hand in glove

Part A
G |------------/7-------5----------|--------------------------------|
D |-3---3--(3)--------------7------|-1---1--------------------------|
A |----------------------------(3)-|-------------1-------1---1---3--|
E |--------------------------------|--------------------------------|
[ Tab from: http://www.guitartabs.cc/tabs/s/smiths/hand_in_glove_btab.html ]
G |------------/7-------5----------|--------------------------------|
D |-3---3--(3)--------------7------|-1---1--------------------------|
A |----------------------------(3)-|-------------1-----------1---3--|
E |--------------------------------|---------------------3----------|


Part B
G |--------------------------------|--------------------------------|
D |-----5-------0---3---0---3------|-------------------------/8^10--|
A |-----------------------------3--|-----3---3---3-/-6---6----------|
E |-3------------------------------|--------------------------------|

G |--------------------------------|--------------------------------|
D |-----5-------0---3---0---3------|--------------------------------|
A |-----------------------------3--|-----3---3-------1-------1------|
E |-3------------------------------|-------------3------------------|