Smiths - Half A Person Chords & Tabs

 

Half A Person Chords & Tabs

Smiths Chords & Tabs

Version: 1 Type: Tab

Half A Person Tab

Half a person

Intro Slide
G |--------------------------------|--------------------------------|
D |--------------------------------|--------------------------------|
A |--------------------------------|--------------------------------|
E |--------------------------------|---------------------10\--------|

Verse
G |--------------------------------|--------------------------------|
D |--------------------------------|--------------------------------|
A |--------------------------------|--------------------------------|
E |-3-------\------10-----------0--|-------------0---0-------2---0--| 2x

G |--------------------------------|--------------------------------|
D |--------------------------------|--------------------------------|
A |-2-----------0---0--------------|--------------------------------|
E |-----------------------------3--|-------------3---3-------2------|

G |--------------------------------|--------------------------------|
D |--------------------------------|--------------------------------|
A |--------------------------------|--------------------------------|
E |-0-----------0---0---2---3---5--|-------------5---5--------------|

Verse
G |--------------------------------|--------------------------------|
D |--------------------------------|--------------------------------|
A |--------------------------------|-------------5-------0----------|
E |-2-----------2---2-----------2--|-3---------------------------2--|
[ Tab from: http://www.guitartabs.cc/tabs/s/smiths/half_a_person_tab.html ]
G |--------------------------------|--------------------------------|
D |--------------------------------|--------------------------------|
A |--------------------------------|-------------------------0---2--|
E |-2-----------2---2-----------2--|-3-----------2---2---3----------|

Chorus
G |--------------------------------|--------------------------------|
D |--------------------------------|--------------------------------|
A |-5-----------5---5--------------|-0-----------0---0--------------|
E |--------------------------------|-----------------------------0--|

G |--------------------------------|--------------------------------|
D |--------------------------------|--------------------------------|
A |--------------------------------|-2------------------------------|
E |-2-----------2---2-----------2--|-------------3---3--------------|

G |--------------------------------|--------------------------------|
D |--------------------------------|--------------------------------|
A |-5-----------5---5--------------|-0-----------0---0--------------|
E |--------------------------------|-----------------------------0--|

G |--------------------------------|--------------------------------|
D |--------------------------------|-4----------(4)----(5)----------|
A |--------------------------------|----------------(4)-------------|
E |-2-----------2---2-----------2--|--------------------------------|

Order:
[00:00] Slide
Block
[00:04] Verse 2x
[00:36] Bridge
[00:44] Chorus
End Block

[01:00] Repeat Block
[01:55] Repeat Block
[02:52] Verse until fade (That's the story of my life...)