Smiths - Golden Lights Chords & Tabs

 

Golden Lights Chords & Tabs

Smiths Chords & Tabs

Version: 1 Type: Bass Tab

Golden Lights Bass Tab

Golden lights

Intro
G |--------------------------------|--------------------------------|
D |-----------------------------2--|--------------------------------|
A |-----------------2---2----------|---------2~~--------------------|
E |--------------------------------|-----0--------------------------|

Verse
G |--------------------------------|--------------------------------|
D |--------------------------------|--------------------------------|
A |---------------------2---4------|-2---------\-6---------\-9------|
E |-0-----------4---------------4--|--------------------------------| 2x
[ Tab from: http://www.guitartabs.cc/tabs/s/smiths/golden_lights_btab.html ]
G |--------------------------------|--------------------------------|
D |-------------------------2------|-------------------------2------|
A |-0-----------4------------------|-0-----------4------------------|
E |------------------------------2-|------------------------------2-|
                                                                        
G |--------------------------------|-------------------------4------|
D |-------------------------2------|-------------4------------------| 
A |-0-----------4------------------|-2------------------------------|  
E |--------------------------------|--------------------------------|  
Chorus
G |--------------------------------|--------------------------------|
D |--------------------------------|--------------------------------|
A |---------------------2---4------|-2---------\-6---------\-9------|
E |-0-----------4---------------4--|--------------------------------| 2x

G |--------------------------------|--------------------------------|
D |--------------------------------|---------------------2----------|
A |---------------------2----------|-0-----------4-----------4------|
E |-0-----------4-----------4------|--------------------------------|

G |--------------------------------|--------------------------------|
D |-----------------------------2--|--------------------------------|
A |-----------------2---2----------|---------2~~--------------------|
E |-0------------------------------|-----0--------------------------|

Break
G |-------------6-----------4------|--------------------------------|
D |-2------------------------------|-------------1-----------4------|
A |--------------------------------|-0------------------------------|
E |--------------------------------|--------------------------------|