Smiths - Frankly Mr Shankly Chords & Tabs

 

Frankly Mr Shankly Chords & Tabs

Smiths Chords & Tabs

Version: 1 Type: Tab

Frankly Mr Shankly Tab

"Frankly, Mr. Shankly, this position I've held..."
E-|-0------5-5-5-5---4-4-2-2---4-4-2-2--------------|
B-|-0------5-5-5-5---5-5-4-4---5-5-4-4--------------|
G-|-1------6-6-6-6---6-6-4-4---6-6-4-4--------------|
D-|-2-----------------------------------------------|
A-|-2-----------------------------------------------|
E-|-0-----------------------------------------------|

   "I want to leave, you will not miss me..."
E-|-0------5-5-5-5---4-4-2-2---4-4-2-2---5-5-5-2----|
B-|-0------5-5-5-5---5-5-4-4---5-5-4-4---5-5-5-4----|
G-|-1------6-6-6-6---6-6-4-4---6-6-4-4---6-6-6-4----|
D-|-2-----------------------------------------------|
A-|-2-----------------------------------------------|
E-|-0-----------------------------------------------|
[ Tab from: http://www.guitartabs.cc/tabs/s/smiths/frankly_mr_shankly_tab.html ]
The above two pieces repeat throughout the verses, fairly regularly.
The only big exceptions are:

   INSTRUMENTAL BRIDGE PART (DO THIS TWICE)
E-|-0-0-2-0---0-0-2-0---0-0-2-0---3-3-3-2-0---------|
B-|-2-0-4-2---2-0-4-2---2-0-4-0---3-3-3-4-0---------|
G-|-2-1-4-1---2-1-4-1---2-1-4-1---4-4-4-4-1---------|
D-|-------------------------------------------------|
A-|-------------------------------------------------|
E-|-------------------------------------------------|

The last verse is slightly different at the end:

   "I do not mean to be so rude..."
E-|-0------5-5-5-5---4-4-2-2---4-4-2-2---5-5-5-5--0-|
B-|-0------5-5-5-5---5-5-4-4---5-5-4-4---5-5-5-5--0-|
G-|-1------6-6-6-6---6-6-4-4---6-6-4-4---6-6-6-6--1-|
D-|-2---------------------------------------------2-|
A-|-2---------------------------------------------2-|
E-|-0---------------------------------------------0-|