Smiths - Frankly Mr Shankly Chords & Tabs

 

Frankly Mr Shankly Chords & Tabs

Smiths Chords & Tabs

Version: 1 Type: Bass Tab

Frankly Mr Shankly Bass Tab

Frankly mr shankly

Intro
G |--------------------------------|
D |--------------------------------|
A |--------------------------------|
E |-0-------0-------2-------4------|

Verse A & Verse B (replace last bar)
G |--------------------------------|--------------------------------|
D |-----------------------------2--|-------------------------2---4--|
A |-0---------------0---2---4------|-4-------0---4---2--------------|
E |---------0----------------------|--------------------------------|

G |--------------------------------|--------------------------------| 
D |-------------------------2---4--|--------------------------------| 
A |-4-----------4---2--------------|--------------------------------| 
E |---------4----------------------|-0-------0-------0---0---2---4--| 

G |--------------------------------|
D |--------------------------------|
A |-0---------------0-------2------|
E |--------------------------------|

Verse End
G |--------------------------------|
D |--------------------------------|
A |--------------------------------|
E |-0-------0-------0---0---2---4--|
[ Tab from: http://www.guitartabs.cc/tabs/s/smiths/frankly_mr_shankly_btab.html ]
Instrumental
G |--------------------------------|--------------------------------|
D |--------------------------------|--------------------------------|
A |-0---------------2---2---4------|-0-------------------2---4------|
E |---------0----------------------|---------0----------------------|

G |--------------------------------|--------------------------------|
D |--------------------------------|-------------------------2------|
A |-0---------------2---2---4------|---------------------2----------|
E |---------0----------------------|-3---3-3---3-3------------------|

G |--------------------------------|--------------------------------|
D |--------------------------------|--------------------------------|
A |-0---------------2---2---4------|-0-------------------2---4------|
E |---------0----------------------|---------0----------------------|

G |--------------------------------|--------------------------------|
D |--------------------------------|--------------------------------|
A |-0---------------2---2---4------|---------------------2---0------|
E |---------0----------------------|-3---3-3---3-3------------------|

Enjoy