Smiths - Bigmouth Strikes Again Chords & Tabs

 

Bigmouth Strikes Again Chords & Tabs

Smiths Chords & Tabs

Version: 2 Type: Bass Tab 0 ratings
1 star 2 stars 3 stars 4 stars 5 stars
comments

Bigmouth Strikes Again Bass Tab

group: The Smiths
song:  Bigmouth strikes again
album: Best of (Part 2)

Bass tab
[ Tab from: http://www.guitartabs.cc/tabs/s/smiths/bigmouth_strikes_again_btab_ver_2.html ]
Riff 1
------------------------------------------------------------
-------------------8----------------------------------------
--4-4--4-6-7---7/9---9\---4-4--4-----4-7-----6-9------------
-------------7-------------------7-5-----5/7----------------

Riff 2(refrain)
----6-6-------9-9-----9-----6-6-----------------------------
--------4/6---------8---------------------------------------
--4---------7-----9-------4-----6h7---4-7-----6-9-----------
------------------------------------5-----5/7---------------

13/7/98

Geertj@sin.khk.be
Comments