Smiths - Big Mouth Strikes Again Chords & Tabs

 

Big Mouth Strikes Again Chords & Tabs

Smiths Chords & Tabs

Version: 1 Type: Tab 0 ratings
1 star 2 stars 3 stars 4 stars 5 stars
comments

Big Mouth Strikes Again Tab

#----------------------------------PLEASE NOTE---------------------------------#
#This file is the author's own work and represents their interpretation of the #
#song. You may only use this file for private study, scholarship, or research. #
#------------------------------------------------------------------------------#
Tabber: Uuunknown
heres my version 
capo on 4th fret

---------------
--1------------
----2----------
----2----------
---------------
---------------
[ Tab from: http://www.guitartabs.cc/tabs/s/smiths/big_mouth_strikes_again_tab.html ]
---------------
--1------------
---------------
------2--------
---------3-----
--------------

--------------
----3---------
--------------
---------4----
-----------5--
--------------

--1-----------
--1-----------
---2----------
---------3----
---------3----
--1----------

--3---------
--3---------
--------4---
-----------5
-----------5
--3---------

------------
------------
-----------
---2-------
---2-------
-----------

-----------
-----------
-----------
-----3-----
-----3-----
-----------
Comments