Smiths - Ask Chords & Tabs

 

Ask Chords & Tabs

Smiths Chords & Tabs

Version: 1 Type: Bass Tab

Ask Bass Tab

Intro
G|--------------------------|
D|--------------------------|
A|-------3-----/10-9h10-10/-|
E|-3/~-3---3/~--------------|
[ Tab from: http://www.guitartabs.cc/tabs/s/smiths/ask_btab.html ]
Verse
G|-----------------------|
D|---------------0-0-----|
A|---------3-0-3-----3-2-|
E|-3-0-5-0---------------|

The play the intro again

Interlude
G|------9----7----(7)-\5------5--------|
D|---------7------(7)-\5----5----------|
A|---/7----5---5---5--\3--3-----3~-3---| x2
E|-0---------------------------------3-|

Verse

Intro

Verse

End with intro