Smithereens - Blood And Roses Chords & Tabs

 

Blood And Roses Chords & Tabs

Smithereens Chords & Tabs

Version: 1 Type: Bass Tab 0 ratings
1 star 2 stars 3 stars 4 stars 5 stars
comments

Blood And Roses Bass Tab

This is much closer than any of the other versions I've seen.


Intro/Verse/Outro
G|--------|--------|
D|------0-|------40|
A|---2---2|---2-2--|
E|0-3-3---|0-3-3---|

Chorus
G|--------|---------|--------|---------|----------|------|
D|--------|---------|--------|---------|----------|------|
A|33-333-3|55-5-77-7|33-333-3|55-5-77-7|33-333----|------|
E|--------|---------|--------|---------|------0135|5-55/\|
[ Tab from: http://www.guitartabs.cc/tabs/s/smithereens/blood_and_roses_btab.html ]
Solo  (starts of like this for about 4 measures then changes
to something I'm not sure of yet...)
G|--------|--------|
D|22225555|22225500|
A|--------|--------|
E|--------|--------|

Then it's just another verse, then chorus, then back to verse
until you end, the song fades out, so do with it what you like.

The arrangement is something like:
Intro
Verse
Chorus
Verse
Chorus
Intro
Solo
Intro
Verse
Chorus
Outro
Comments