Smith Martin - The Happy Song Chords & Tabs

 

The Happy Song Chords & Tabs

Smith Martin Chords & Tabs

Version: 1 Type: Bass Tab 1 rating
1 star 2 stars 3 stars 4 stars 5 stars
comments

The Happy Song Bass Tab

Artist: Martin Smith
Song: The Happy Song
Tabbed by: Derek5272

Chorus:
Oh I could sing unending songs of how You saved my soul
Well I could dance a thousand miles because of Your great love

G|---------------------------------
D|-5---5---4-2-----2---2-----------
A|---5---5-----5-2---2---2-3---3-5-
E|---------------------------3-----

Verses:
My heart is bursting Lord, to tell of all you've done
Of how You changed my life, and wiped away the past

I wanna shout it out, from every rooftop sing
For now I know that God is for me not against me
[ Tab from: http://www.guitartabs.cc/tabs/s/smith_martin/the_happy_song_btab.html ]
G|-------------------
D|-5-5-4---2---------
A|-------5---3-3-3-5-
E|-------------------

Bridge:
Everybody's singing now, 'cause we're so happy
Everybody's dancing now, 'cause we're so happy

G|------------------------------------------
D|---5---5---5---5----------5---5---5---5---
A|-3---5---5---5---5-3-3/15---5---5---5---5-
E|------------------------------------------

If only we could see Your face and see You smiling over us
And unseen angels celebrate, for joy is in this place

G|---------------------
D|---------------------
A|---3---3-3-3-3-3-3-3-
E|-5---5--------------- Into Chorus line
Comments