Smile Empty Soul - Your Way Chords & Tabs

 

Your Way Chords & Tabs

Smile Empty Soul Chords & Tabs

Version: 1 Type: Bass Tab 0 ratings
1 star 2 stars 3 stars 4 stars 5 stars
comments

Your Way Bass Tab

Your Way
Intro
F# |-------------------------------------------------------------------|
C# |-------------------------------------------------------------------|
G# |-------------------------------------------------------------------|
C# |-2-0-2-0-20-2-0----------------------------------------------------|

Verse part 1
F# |-------------------------------------------------------------------|
C# |-------------------------------------------------------------------|
G# |-------------------------------------------------------------------|
C# |-4-4-44-4-4-4h2-4-4-44-4h2-5h7/9-----------------------------------|

Verse part 2
F# |-------------------------------------------------------------------|
C# |-------------------------------------------------------------------|
G# |-------------------------------------------------------------------|
C# |-4~---4-4h2--------------------------------------------------------|
[ Tab from: http://www.guitartabs.cc/tabs/s/smile_empty_soul/your_way_btab.html ]
Chorus
F# |-------------------------------------------------------------------|
C# |-------------------------------------------------------------------|
G# |-------------------------------------------------------------------|
C# |-4-444--0-000--7-777--2-222----------------------------------------|

Bridge
F# |-------------------------------------------------------------------|
C# |-------------------------------------------------------------------|
G# |-------------------------------------------------------------------|
C# |-4--6--7--2--------------------------------------------------------|

Outro
F# |-------------------------------------------------------------------|
C# |-------------------------------------------------------------------|
G# |-------------------------------------------------------------------|
C# |-4-4-44-4-4--------------------------------------------------------|

Intro
Verse part 1 x2
Verse part 2 
Verse part 1
Chorus       x4
Verse part 1 x4
Verse part 2 
Verse part 1
Chorus       x4
Bridge       x4 
Chorus       x4
Verse part 1 x3
Outro

Check out my other tabs Radio in a Hole and Therapy
Comments