Smile Empty Soul - With This Knife Chords & Tabs

 

With This Knife Chords & Tabs

Smile Empty Soul Chords & Tabs

Version: 4 Type: Tab 0 ratings
1 star 2 stars 3 stars 4 stars 5 stars
comments

With This Knife Tab

Artist: Smile Empty Soul
Album: Smile Empty Soul
Song: With This Knife
Tabbed by: Jaime Martins

Tuning: DADGBE
x: mute string

E---0-------0------0-----------------------------4-------------------------|
B-4-------4------4---------5-----5----------7------7---7------------4-5-0--|
G----6------6------------6-----6---6------6----------6---------9-----------|
D----------------------7-----6-------6--4--------------------9-----9-------|
A----------------------------------------------------------7-----6---------|
D--------------------------------------------------------------------------|
6 times

E------------------|
B------------------|
G------------------|
D-6----------------|
A-4--7--6--4--2--1-|
D----7--6--4--2--1-|
2 times

E------------------------|
B------------------------|
G----------14--13-13--11-|
D-6--8--9--x---x--x---x--|
A-4--6--7--12--11-11--9--|
D------------------------|
1 time

E------------------|
B------------------|
G------------------|
D-6----------------|
A-4--7--6--4--2--1-|
D----7--6--4--2--1-|
6 times

E------------------------|
B------------------------|
G----------14--13-13--11-|
D-6--8--9--x---x--x---x--|
A-4--6--7--12--11-11--9--|
D------------------------|
1 time

E-------------------------|
B-------------------------|
G----------15--14--14--12-|
D----------x---x---x---x--|
A-0--2--3--13--12--12--10-|
D-0--2--3-----------------|
6 times
[ Tab from: http://www.guitartabs.cc/tabs/s/smile_empty_soul/with_this_knife_tab_ver_4.html ]
E---0-------0------0-----------------------------4-------------------------|
B-4-------4------4---------5-----5----------7------7---7------------4-5-0--|
G----6------6------------6-----6---6------6----------6---------9-----------|
D----------------------7-----6-------6--4--------------------9-----9-------|
A----------------------------------------------------------7-----6---------|
D--------------------------------------------------------------------------|
1 time

end on
E-0-----|
B-5-----|
G-6-----|
D-6-----|
A-4-----|
D-------|

                              LYRICS
[Intro Verse:]
I let myself fall into a lie
I let my walls come down
I let myself smile and feel alive
I let my walls come down
No matter how i try i don't know why
You push so far away
You wrapped your hands tight around my heart
And squeezed it full of pain

[Chorus:]
With this knife i'll cut out the part of me
The part that cares for you
With this knife i'll cut out the heart of me
The heart that cares for you

[Verse:]
I can't believe the way you took me down
I never saw the pain
Coming in a million broken miles
Like poison for my veins

[Chorus:]
With this knife i'll cut out the part of me
The part that cares for you
With this knife i'll cut out the heart of me
The heart that cares for you

With this knife i'll cut out the part of me
The part that cares for you
With this knife i'll cut out the heart of me
The heart that cares for you

[verse:]
The hate and the fear
The nightmares that wake me up
In tears
The nightmares and

The hate and the fear
The nightmares that wake me up
In tears
The nightmares and

The hate and the fear
The nightmares that wake me up
In tears
The nightmares and the hate.

                       only reason i tabbed this out
                  was cuz i was looking for a tab for it
              and every damn tab was really wrong so i just
            learned it by ear and tabbed it so u guys have a tabb
         thats more on the right side, it might have a few mess ups
      but atleast its atleast in the key they play in eh, im me if u want
 discuss the tab of it your board i guess, evil uhm is my aim sn see ya guys
Comments