Smile Empty Soul - Who I Am Chords & Tabs

 

Who I Am Chords & Tabs

Smile Empty Soul Chords & Tabs

Version: 1 Type: Tab 0 ratings
1 star 2 stars 3 stars 4 stars 5 stars
comments

Who I Am Tab

Smile empty soul
Who I am (spider man 2 soundtrack)
Tabbed by: drainyou6989

I heard this song, and i am a fan of smile empty soul so i figured i would tab it.  It 
is the only good song on the spider man 2 soundtrack.  SO ENJOY

by the way its: drop d and a half step down

Intro/main riff   x7 (clean with a TAD BIT of chorus effects)

eb|-------------------------------------------------------------------------|
Bb|-------------------------------------------------------------------------|
Gb|------------------888----------------------------------------------------|
Db|------------------999----------------------------------------------------|
Ab|--------666-7777---------------------------------------------------------|
Db|---6666------------------------------------------------------------------|

then the drums come in with the 2nd guitar playing (distortion)

eb|-------------------------------------------------------------------------|
Bb|-------------------------------------------------------------------------|
Gb|-------------------------------------------------------------------------|
Db|---6-6----6----6-6----6--6----6-6----6----6-6----6-----------------------|
Ab|---6-6----6----6-6----6--6----6-6----6----6-6----6-----------------------|
Db|---6-6----6----6-6----6--6----6-6----6----6-6----6-----------------------|

pre chorus x2 (clean)

eb|--------------------------------------------------------------------------|
Bb|--------------------------------------------------------------------------|
Gb|--------------------------------------------------------------------------|
Db|----2-----------6-4-------------------------------------------------------|
Ab|----2-----------6-4-------------------------------------------------------|
Db|----2-----------6-4-------------------------------------------------------|
strum the 6, listen to the song for how it goes
[ Tab from: http://www.guitartabs.cc/tabs/s/smile_empty_soul/who_i_am_tab.html ]
Chorus (distorted)

eb|-------------------------------------------------------------------------|
Bb|-------------------------------------------------------------------------|
Gb|-------------------------------------------------------------------------|
Db|----666--999--444--777--222--444--777------------------------------------|
Ab|----666--999--444--777--222--444--777------------------------------------|
Db|----666--999--444--777--222--444--777------------------------------------|
   listen to the song to get the timing down

Bridge (flanger)

eb|-------------------------------------------------------------------------|
Bb|-------------------------------------------------------------------------|
Gb|-------------------------------------------------------------------------|
Db|---222--666--777--999--444-----------------------------------------------|
Ab|---222--666--777--999--444-----------------------------------------------|
Eb|---222--666--777--999--444-----------------------------------------------|
   once again listen to get timing down

acoustic part of bridge:

eb|-------------------------------------------------------------------------|
Bb|-------------------------------------------------------------------------|
Gb|-------------------------------------------------------------------------|
Db|----666--999--444--777---------------------------------------------------|
Ab|----666--999--444--777---------------------------------------------------|
Db|----666--999--444--777---------------------------------------------------|
   and ill say it again u get the timing right
order of song:

intro/main riff
Verse (just add drums and a 2nd guitar) 1
pre chorus
Chorus
verse 2
pre chorus
chorus
bridge
chorus

I tried, u just have the privaledge of reading the tab i did and listening to the song 
get the timing down.  Later i will post the tabs for the unreleased songs rain and meaningless
Comments