Smile Empty Soul - This Is War Chords & Tabs

 

This Is War Chords & Tabs

Smile Empty Soul Chords & Tabs

Version: 6 Type: Tab

This Is War Tab

   
Smile Empty Soul  This Is War

Standard tune

Verse

E|-----------------------------------------------------------------|
B|-----------------------------------------------------------------|
G|-----------------------------------------------------------------|
D|-6-6-6-6-6-6-6-6-6-6-6-6-6-6-6-6---------------------------------|
A|-6-6-6-6-6-6-6-6-6-6-6-6-8-8-8-8-8-8-8-8-8-8-8-8-8-8-8-8-8-8-8-6-|
E|--------------------------------6-6-6-6-6-6-6-6-6-6-6-6-6-6-6-6-|

E|-----------------------------------------------------------------|
B|-----------------------------------------------------------------|
G|-----------------------------------------------------------------|
D|-9-9-9-9-9-9-9-9-6-6-6-6-6-6-6-6---------------------------------|
A|-9-9-9-9-9-9-9-9-6-6-6-6-6-6-6-6-6-6-6-6-6-6-6-6-6-6-6-6-6-6-6-4-|
E|--------------------------------6-6-6-6-6-6-6-6-6-6-6-6-6-6-6-4-|

E|-----------------------------------------------------------------|
B|-----------------------------------------------------------------|
G|-----------------------------------------------------------------|
D|-6-6-6-6-6-6-6-6-6-6-6-6-6-6-6-6---------------------------------|
A|-6-6-6-6-6-6-6-6-6-6-6-6-8-8-8-8-8-8-8-8-8-8-8-8-8-8-8-8-8-8-8-6-|
E|--------------------------------6-6-6-6-6-6-6-6-6-6-6-6-6-6-6-6-|
[ Tab from: http://www.guitartabs.cc/tabs/s/smile_empty_soul/this_is_war_tab_ver_6.html ]
E|-----------------------------------------------------------------|
B|-----------------------------------------------------------------|
G|-----------------------------------------------------------------|
D|-9-9-9-9-9-9-9-9-6-6-6-6-6-6-6-6---------------------------------|
A|-9-9-9-9-9-9-9-9-6-6-6-6-6-6-6-6-6-6-6-6-6-6-6-6-6-6-6-6-6-6-6-6-|
E|--------------------------------6-6-6-6-6-6-6-6-6-6-6-6-6-6-6-6-|

Chorus

1 Guitar
E|---------2---------------2---------------2---------------2-------|
B|-----2-------2-------2-------2-------2-------2-------2-------2---|
G|-----------------------------------------------------------------|2 Guitar
D|-4-4-4-4-4-4-4-4-4-4-4-4-4-4-4-4-6-6-6-6-6-6-6-6-6-6-6-6-6-6-6-6-|
A|-4-4-4-4-4-4-4-4-4-4-4-4-4-4-4-4-4-4-4-4-4-4-4-4-4-4-4-4-4-4-4-4-|
E|----------------------------------------------------------------|

1 Guitar
E|-----------------------------------------------------------------|
B|---------1---------------1-----------0---2---0-------0---2---0---|
G|-----3-------3-------3-------3-----------------------------------|2 Guitar
D|-3-3-3-3-3-3-3-3-3-3-3-3-3-3-3-3-4-4-4-4-4-4-4-4-4-4-4-4-4-4-4-4-|
A|-1-1-1-1-1-1-1-1-1-1-1-1-1-1-1-1-2-2-2-2-2-2-2-2-2-2-2-2-2-2-2-2-|
E|----------------------------------------------------------------|