Smile Empty Soul - This Is War Chords & Tabs

 

This Is War Chords & Tabs

Smile Empty Soul Chords & Tabs

Version: 4 Type: Tab 0 ratings
1 star 2 stars 3 stars 4 stars 5 stars
comments

This Is War Tab

   
-------------------------------------------------------------------------------
			     THIS IS WAR - Smile empty soul
-------------------------------------------------------------------------------
Tabbed by: Gashler
Email: Guitar_pyscho@hotmail.com

Tuning: Db-Ab-Db-Gb-Bb-Eb

I've seen so many other versions of this, and they're all WRONG!! This is
correct, I promise you.


Intro + verse (figure out the strumming pattern yourself)
Eb|------------------------------------------------------------------|
Bb|------------------------------------------------------------------|
Gb|-------------------------------------5-5-5-5-5--------------------|
Db|-7-7-7-7-7-7-7-7-7-7-7-7-9-9-5-5-5-5-5-5-5-5-5--7-7-7-7-2-2-2-2---|
Ab|-7-7-7-7-7-7-7-7-7-7-7-7-9-9-5-5-5-5-3-3-3-3-3--7-7-7-7-2-2-2-2---|
Db|-7-7-7-7-7-7-7-7-7-7-7-7-7-7-5-5-5-5------------7-7-7-7-2-2-2-2---|
[ Tab from: http://www.guitartabs.cc/tabs/s/smile_empty_soul/this_is_war_tab_ver_4.html ]
Chorus
Eb|------------------------------------------------------------------|
Bb|-----0-------0----------------------------------------------------|
Gb|-----0-------0-------7-------7-------4-------4-------5-------5----|
Db|---5-5-5---5-5-5---7-7-7---7-7-7---4-4-4---4-4-4---5-5-5---5-5-5--|
Ab|-----5-------5---5---5---5---5---2---2---2---2---3---3---3---3----|
Db|-5---5---5---5----------------------------------------------------|

Interlude between chorus and verse
Eb|------------------------------------------------------------------|
Bb|------------------------------------------------------------------|
Gb|------------------------------------------------------------------|
Db|-5-5-5-5-5-5-5-5-5-5-5-5-5-5-5-5----------------------------------|
Ab|-5-5-5-5-5-5-5-5-6-6-6-6-5-5-5-5---X2-----------------------------|
Db|-5-5-5-5-5-5-5-5-5-5-5-5-5-5-5-5----------------------------------|

That was my first tab, so I would appreciate some feedback :)
Comments