Smile Empty Soul - Therapy Chords & Tabs

 

Therapy Chords & Tabs

Smile Empty Soul Chords & Tabs

Version: 5 Type: Tab 0 ratings
1 star 2 stars 3 stars 4 stars 5 stars
comments

Therapy Tab

   
-------------------------------------------------------------------------------
			    therapy - smile empty soul
-------------------------------------------------------------------------------
Tabbed by:eddie gil
Email:taxidermia_91@hotmail.com

Tuning: standard tuning

Intro: clean and palm mute

*do a lighter palm mute on the fours on the d string (do the same with the other ones)

e|---------------------------------------------------------------------------|
B|---------------------------------------------------------------------------|
G|---------------------------------------------------------------------------|
D|-----44------44-------44-4-----44-4----------------------------------------|
A|- -44--44--44--44-5555--5--7777--7---------x2------------------------------|
E|-22------22----------------------------------------------------------------|

 intro 2
*heavy distortion (do the same with the other ones)
e|--------------------------------------------------------------------------|
B|--------------------------------------------------------------------------|
G|------77-----------77-----------------------------------------------------|
D|---44-77-77-----44-77-77 -4/7777777/9999999-------------------------------|
A|00 44-55-77--00-44-55-77- 4/7777777/9999999------x2-----------------------|
E|00-22----55- 00-22----55--2/5555555/7777777-------------------------------|

verse 1    repeat as needed
e|--------------------------------------------------------------------------|
B|--------------------------------------------------------------------------|
G|--------------------------------------------------------------------------|
D|----44------44-----44-4-----44--------------------------------------------|
A|--44--44--44---5555--5--7777--74------------------------------------------|
E|22------22----------------------------------------------------------------|

chorus
e|--------------------------------------------------------------------------|
B|--------------------------------------------------------------------------|
G|------77----------77------------------------------------------------------|
D|---44-77-77----44-77-77---4/7777777/9999999-------------------------------|
A|00-44-55-77-00-44-55 77   4/7777777/9999999-----------x4------------------|
E|00-22----55-00-22----55---2/5555555/7777777-------------------------------|

interlude: clean and palm mute ( do a lighter palm mute on the 0 on the d string)
e|---------------------------------------------------------------------------|
B|---------------------------------------------------------------------------|
G|---------------------------------------------------------------------------|
D|----00------00-------00-0-----0000-0---------------------------------------|
A|--00--00--00--00-1111--1--3333----3----------------------------------------|
E|00------00-----------------------------------------------------------------|
[ Tab from: http://www.guitartabs.cc/tabs/s/smile_empty_soul/therapy_tab_ver_5.html ]
verse 2  repeat as needed
e|--------------------------------------------------------------------------|
B|--------------------------------------------------------------------------|
G|--------------------------------------------------------------------------|
D|----44------44-------44-4----44-4-----------------------------------------|
A|--44--44--44--44-5555--5-7777--7------------------------------------------|
E|22------22----------------------------------------------------------------|


  chorus 2
e|--------------------------------------------------------------------------|
B|--------------------------------------------------------------------------|
G|------77----------77------------------------------------------------------|
D|---44-77-77----44-77-77  4/7777777/9999999------------x4------------------|
A|00-44-55-77-00-44-55-77  4/7777777/9999999--------------------------------|
E|00-22----55-00-22----55- 2/5555555/7777777--------------------------------|

interlude 2  heavy
e|--------------------------------------------------------------------------|
B|--------------------------------------------------------------------------|
G|--------------------------------------------------------------------------|
D|44-xx-444-xx-44-----------------------------------------------------------|
A|44-xx-444-xx-44----------x2-----------------------------------------------|
E|22-xx-222-xx-22-----------------------------------------------------------|

bridge  palm mute
e|--------------------------------------------------------------------------|
B|--------------------------------------------------------------------------|
G|--------------------------------------------------------------------------|
D|44-44-4-------------------------------------------------------------------|
A|44-44-4------x4-----------------------------------------------------------|
E|22-22-2-------------------------------------------------------------------|

pre chorus
e|---------------------------------------------------------------------------|
B|---------------------------------------------------------------------------|
G|---------------------------------------------------------------------------|
D|-----44------44-------44-4-----44-4----------------------------------------|
A|- -44--44--44--44-5555--5--7777--7-----------------------------------------|
E|-22------22--------------------------------------------------------||------|

  chorus 3
e|--------------------------------------------------------------------------|
B|--------------------------------------------------------------------------|
G|------77----------77------------------------------------------------------|
D|---44-77-77----44-77-77  4/7777777/9999999------------x4------------------|
A|00-44-55-77-00-44-55-77  4/7777777/9999999--------------------------------|
E|00-22----55-00-22----55- 2/5555555/7777777--------------------------------|

outro
e|--------------------------------------------------------------------------|
B|--------------------------------------------------------------------------|
G|--------------------------------------------------------------------------|
D|44-xx-444-xx-44----44-xx-44-----------------------------------------------|
A|44-xx-444-xx-44----44-xx-44-----------------------------------------------|
E|22-xx-222-xx-22----22-xx-22-----------------------------------------------|

  .  palm mute
| /  slide up
| \  slide down
| h  hammer-on
| p  pull-off
| ~  vibrato
| +  harmonic
| x  Mute note
Comments