Smile Empty Soul - Therapy Chords & Tabs

 

Therapy Chords & Tabs

Smile Empty Soul Chords & Tabs

Version: 2 Type: Tab 0 ratings
1 star 2 stars 3 stars 4 stars 5 stars
comments

Therapy Tab

   
                         Therapy
                    by:Smile Empty Soul
Tuning:From low to high( Db Ab Db Gb Bb Eb)

Intro and Verse:
|--------------------------------------------------------------------|
|--------------------------------------------------------------------|
|--------------------------------------------------------------------|
|--------55-----------------55-------------55-----------55-----------|
|----55-----55---------55------55----6666-----66---8888---88---------|
|-55--------------55-------------------------------------------------|
[ Tab from: http://www.guitartabs.cc/tabs/s/smile_empty_soul/therapy_tab_ver_2.html ]
Chorus:
|------------------------------------------------------------------|
|------------------------------------------------------------------|
|------------------------------------------------------------------|
|-0-0--5-5--0-0--5-5--0-0--5-5--0-0-5-5----8(x8)---10(x8)----------|
|-0-0--5-5--0-0--5-5--0-0--5-5--0-0-5-5----8-------10--------------|
|-0-0--5-5--0-0--5-5--0-0--5-5--0-0-5-5----8-------10--------------|

Interlude and End:
|---------------------------------------------|
|---------------------------------------------|
|---------------------------------------------|
|-55-5-5-5-5----------------------------------|
|-55-5-5-5-5----------------------------------|
|-55-5-5-5-5----------------------------------|

Im pretty sure this is about 99% correct. Email me at jred0690@hotmail.com
if you wanna request any other songs by SES and ill figure them out for you.
Comments