Smile Empty Soul - The Other Side Chords & Tabs

 

The Other Side Chords & Tabs

Smile Empty Soul Chords & Tabs

Version: 1 Type: Tab 0 ratings
1 star 2 stars 3 stars 4 stars 5 stars
comments

The Other Side Tab

Tuning is Dropped D a half step down.(Db)

verse:
|---------------------------------|
|----------------------0-0-0------|
|--------5-5-5---------2-2-2------|
|2-2-x-x-5-5-5-0-0-x-x-2-2-2------|
|2-2-x-x-3-3-3-0-0-x-x-0-0-0------|
|2-2-x-x-------0-0-x-x------------|

chorus:
|----------------------------------|
|----------------------------------|
|----------------------------------|
|-2-x-x-4-x-x-5-x-x-7-x-x-10-10-7-7|x2
|-2-x-x-4-x-x-5-x-x-7-x-x-10-10-7-7|
|-2-x-x-4-x-x-5-x-x-7-x-x-10-10-7-7|
[ Tab from: http://www.guitartabs.cc/tabs/s/smile_empty_soul/the_other_side_tab.html ]
interlude(neighbor boy runs up to me....)clean then distorted
|-------------------------------------------------------------------------|
|-------------------------------------------------------------------------|
|-----12-12-12-11-11------11-11-11-9-9-----12-12-12-16-16-14--------------|
|-2-2-x--x--x--x--x--0-0--x--x--x--x-x-2-2-x--x--x--x--x--x---------------|
|-2-2-10-10-10-9--9--0-0--9--9--9--7-7-2-2-10-10-10-14-14-12--------------|
|-2-2----------------0-0---------------2-2--------------------------------|

Thats pretty much it...email me at jre0690@hotmail.com iwth any corrections
or if you have any requests for any songs
Comments