Smile Empty Soul - Silhouettes Chords & Tabs

 

Silhouettes Chords & Tabs

Smile Empty Soul Chords & Tabs

Version: 2 Type: Chords 0 ratings
1 star 2 stars 3 stars 4 stars 5 stars
comments

Silhouettes Chords

   
ARTIST	- Smile Empty Soul
TRACK	- Silhouettes

Tabbed by Kushan (kushan@alexandria.cc)

Tuning - Step down 

Intro & Verse

   Am              G                 D
d|-----------------------------------------------------------------|
A|-----------------------------------------5-------------5---------|
F|---------5---------------4-----------7-----7---7-----7---7---7---|
C|-----7-----7---7-----5-----5---5---7---7-----7-----7-------7-----|
G|---7---7-----7-----5---5-----5---5---------------5---------------|
D|-5---------------3-----------------------------------------------|

Am         G		     D
     Silhouettes above the cradle - hold me down
Am	        G     	       D 
     They wont let me go the wrong way
Am           G                 D
     Mother taught me all the fables - told me how
Am           G           D
     In the end all the sinners have to pay


Chorus

   F               G               Am              Em
d|------------------------------------------------------------------|
A|---------1---------------3---------------5---------------0--------|
F|------------------------------------------------------------------|
C|-----3-----3---3-----5-----5---5-----7-----7---7-----2-----2---2--|
G|---3---3-----3-----5---5-----5-----7---7-----7-----2---2-----2----|
D|-1---------------3---------------5---------------0----------------|

F                 G            Am
     I don' wanna live like my mother
Em               F     G    Am      Em  
     I don' wanna let fear rule my life
F                 G            Am
     I don' wanna live like my father
Em               F     G     Am     Em
     I don' wanna give up before I die

Verse
[ Tab from: http://www.guitartabs.cc/tabs/s/smile_empty_soul/silhouettes_crd_ver_2.html ]
Am                 G                    D
     He worked so hard his bones are breaking - he wore them down
Am          G              D
     Long ago he lost the feeling
Am               G                 D
     His good intentions leave me shaking - show me how
Am      G          D     
     I never wanna end up like he did

Chorus

F                     G            Am
     And I don' wanna live like my mother
Em               F     G    Am      Em  
     I don' wanna let fear rule my life
F                 G            Am
     I don' wanna live like my father
Em               F     G     Am     Em
     I don' wanna give up before I die

Bridge

F    G

Am                  G
     When I have kids
D                          Am
     I wont put any chains on their wrists
G             D
     I wont...
Am                     G
     I'll tell them this
D                                       Am          
     There's nothing in this world that you cant be
G            D
     If you want it enough...

Chorus

F                     G            Am
     And I don' wanna live like my mother
Em               F     G    Am      Em  
     I don' wanna let fear rule my life
F                 G            Am
     I don' wanna live like my father
Em               F     G     Am     Em
     I don' wanna give up before I die

Repeat Chorus x2

Outro

   Am              G                 D
d|-----------------------------------------------------------------|
A|-----------------------------------------5-----------------------|
F|---------5---------------4-----------7------7-----7--------------|
C|-----7-----7---7-----5-----5---5---7---7-------7-----------------|
G|---7---7-----7-----5---5-----5---5-------------------------------|
D|-5---------------3-----------------------------------------------|
Comments