Smile Empty Soul - Silhouettes Chords & Tabs

 

Silhouettes Chords & Tabs

Smile Empty Soul Chords & Tabs

Version: 3 Type: Bass Tab

Silhouettes Bass Tab

   
silhouettes-smile empty soul
this song means a lot 2 me, so i wanna get it 100% right, if its not,
tell me about it @ alienbass479@sbcglobal.net
-punkbass479

~: hold note
h: hammer-on
p: pull-off
/: slide

1st verse
G|----------------||                           |----------------|
D|----------------||                           |----------------|
A|-----------2~---||play this on transitions-->|-----------2-1~-|
E|-2~---0~--------||                           |-2~---0~--------|
[ Tab from: http://www.guitartabs.cc/tabs/s/smile_empty_soul/silhouettes_btab_ver_3.html ]
rest of the verses (an octave higher than the 1st)
G|----------------||                           |----------------|
D|-----------9~---||                           |-----------9-8~-|
A|-9~---7~--------||play this on transitions-->|-9~---7~--------|
E|----------------||                           |----------------|

1st 2 choruses
G|-----------------------------------|
D|-----------4~---------------4~-----|
A|-5~--/7~-------4~--5~--/7~------4~-|
E|-----------------------------------|x2

choruses after that
G|-------------------------------------|
D|-------------------44444444----------|
A|-55555555h77777777----------44444444-|
E|-------------------------------------| 
play the for the rest of the choruses

bridge
G|----------------------|
D|----------------------|
A|-5--5-5-5--5h7--7-7-7-|
E|----------------------|

dear UG staff,
please accept this, it's good.
-punkbass479