Smile Empty Soul - Saturday Chords & Tabs

 

Saturday Chords & Tabs

Smile Empty Soul Chords & Tabs

Version: 1 Type: Tab 0 ratings
1 star 2 stars 3 stars 4 stars 5 stars
comments

Saturday Tab

   
Saturday

Smile Empty Soul

Drop C#: C# G# C# F# A# D#

Im not sure if this is right but i gave it a shot. On some of the parts i just put the
chords so it really helps to listen to the song or watch a video of them performing this
song live. Heres the link: http://www.voodoomusicfest.com/video_clickrate/getVideo.php?id=93

Intro pt.1: Clean with effects
D#|------------------------------------------|
A#|------------------------------------------|
F#|------------2--2--------------------------|
C#|-2h4--4--4--------0--4h5--5--5--4h5--5--5-| 2x
G#|------------------------------------------|
C#|------------------------------------------|

Intro pt.2: Distorted
D#|------------------------------------------|
A#|------------------------------------------|
F#|------------2--2--------------------------|
C#|-2h4--4--4--2--2--0--4h5--5--5--4h5--5--5-| 4x
G#|-2h4--4--4--0--0--0--4h5--5--5--4h5--5--5-|
C#|-2h4--4--4--------0--4h5--5--5--4h5--5--5-|

Verse 1: Distorted (Im not sure about the rhythm just listen to the song)
D#|---------------------------------------------------------|
A#|---------------------------------------------------------|
F#|-------------------2-2-2---2-2-2-------------------2-2-2-|
C#|-2/4-4-4---4/5-5-5-2-2-2---2-2-2-2/4-4-4---4/5-5-5-2-2-2-|
G#|-2/4-4-4---4/5-5-5-0-0-0---0-0-0-2/4-4-4---4/5-5-5-0-0-0-|
C#|-2/4-4-4---4/5-5-5---------------2/4-4-4---4/5-5-5-------|

D#|------------------------------------------------------------------|
A#|------------------------------------------------------------------|
F#|-----------2-2-2----------------------------2-2-2-----------2-2-2-|
C#|-x-x-x-x-x-2-2-2--2/4-4-4-x-x-x-x-x-4/5-5-5-2-2-2-x-x-x-x-x-2-2-2-|
G#|-x-x-x-x-x-0-0-0--2/4-4-4-x-x-x-x-x-4/5-5-5-0-0-0-x-x-x-x-x-0-0-0-|
C#|-x-x-x-x-x--------2/4-4-4-x-x-x-x-x-4/5-5-5-------x-x-x-x-x-------|

D#|-----------------------------------|
A#|-----------------------------------|
F#|-------------------2-2-2-----------|
C#|-2/4-4-4---4/5-5-5-2-2-2-x-x-x-x-x-| 
G#|-2/4-4-4---4/5-5-5-0-0-0-x-x-x-x-x-|
C#|-2/4-4-4---4/5-5-5-------x-x-x-x-x-|

Chorus 1: (Im just giving the chords the the rhythm should be easy to figure out again
listen to the song)
D#|-----------------------------------|
A#|-----------------------------------|
F#|-------7--9-------------7--9-------|
C#|-4--0--x--x--7--2----4--x--x--7--2-|
G#|-4--0--5--7--7--2----4--5--7--7--2-|
C#|-4--0--0--0--7--2----4--0--0--7--2-|

Post Chorus:
D#|------------------------------------------|
A#|------------------------------------------|
F#|------------2--2--------------------------|
C#|-2h4--4--4--2--2--0--4h5--5--5--4h5--5--5-| 2x
G#|-2h4--4--4--0--0--0--4h5--5--5--4h5--5--5-|
C#|-2h4--4--4--------0--4h5--5--5--4h5--5--5-|
[ Tab from: http://www.guitartabs.cc/tabs/s/smile_empty_soul/saturday_tab.html ]
Verse 2: Distorted
D#|---------------------------------------------------------|
A#|---------------------------------------------------------|
F#|-------------------2-2-2---2-2-2-------------------2-2-2-|
C#|-2/4-4-4---4/5-5-5-2-2-2---2-2-2-2/4-4-4---4/5-5-5-2-2-2-|
G#|-2/4-4-4---4/5-5-5-0-0-0---0-0-0-2/4-4-4---4/5-5-5-0-0-0-|
C#|-2/4-4-4---4/5-5-5---------------2/4-4-4---4/5-5-5-------|

D#|------------------------------------------------------------------|
A#|------------------------------------------------------------------|
F#|-----------2-2-2----------------------------2-2-2-----------2-2-2-|
C#|-x-x-x-x-x-2-2-2--2/4-4-4-x-x-x-x-x-4/5-5-5-2-2-2-x-x-x-x-x-2-2-2-|
G#|-x-x-x-x-x-0-0-0--2/4-4-4-x-x-x-x-x-4/5-5-5-0-0-0-x-x-x-x-x-0-0-0-|
C#|-x-x-x-x-x--------2/4-4-4-x-x-x-x-x-4/5-5-5-------x-x-x-x-x-------|

D#|-----------------------------------|
A#|-----------------------------------|
F#|-------------------2-2-2-----------|
C#|-2/4-4-4---4/5-5-5-2-2-2-x-x-x-x-x-| 
G#|-2/4-4-4---4/5-5-5-0-0-0-x-x-x-x-x-|
C#|-2/4-4-4---4/5-5-5-------x-x-x-x-x-|

Chorus 2:
D#|---------------------------------------------------------|
A#|---------------------------------------------------------|
F#|-------7--9-------------7--9-----------------------------|
C#|-4--0--x--x--7--2----4--x--x--7--2-----------------------|
G#|-4--0--5--7--7--2----4--5--7--7--2-(let this chord ring)-|
C#|-4--0--0--0--7--2----4--0--0--7--2-----------------------|

Bridge: Clean with effects
D#|------------------------------------------|
A#|------------------------------------------|
F#|------------2--2--------------------------|
C#|-2h4--4--4--2--2--0--4h5--5--5--4h5--5--5-| 6x
G#|-2h4--4--4--0--0--0--4h5--5--5--4h5--5--5-|
C#|-2h4--4--4--------0--4h5--5--5--4h5--5--5-|

Distorted:
D#|------------------------------------------|
A#|------------------------------------------|
F#|------------2--2--------------------------|
C#|-2h4--4--4--2--2--0--4h5--5--5--4h5--5--5-| 3x
G#|-2h4--4--4--0--0--0--4h5--5--5--4h5--5--5-|
C#|-2h4--4--4--------0--4h5--5--5--4h5--5--5-|

Then do this chord: (again just the chord)
D#|---|
A#|---|
F#|---|
C#|-4-|
G#|-4-|
C#|-4-|

Chorus 3:
D#|-----------------------------------|
A#|-----------------------------------|
F#|-------7--9-------------7--9-------|
C#|-4--0--x--x--7--2----4--x--x--7--2-|
G#|-4--0--5--7--7--2----4--5--7--7--2-|
C#|-4--0--0--0--7--2----4--0--0--7--2-|

D#|-----------------------------------------------------|
A#|-----------------------------------------------------|
F#|-------7--9-------------7--9-------------------------|
C#|-4--0--x--x--7--2----4--x--x--7--2-------------------|
G#|-4--0--5--7--7--2----4--5--7--7--2-(bend this chord)-|
C#|-4--0--0--0--7--2----4--0--0--7--2-------------------|

Outro: Distorted
D#|------------------------------------------|
A#|------------------------------------------|
F#|------------2--2--------------------------|
C#|-2h4--4--4--2--2--0--4h5--5--5--4h5--5--5-| 3x
G#|-2h4--4--4--0--0--0--4h5--5--5--4h5--5--5-|
C#|-2h4--4--4--------0--4h5--5--5--4h5--5--5-|

Then this chord: (just the chord)
D#|---|
A#|---|
F#|---|
C#|-4-|
G#|-4-|
C#|-4-|

Comments