Smile Empty Soul - Rain Chords & Tabs

 

Rain Chords & Tabs

Smile Empty Soul Chords & Tabs

Version: 1 Type: Tab 0 ratings
1 star 2 stars 3 stars 4 stars 5 stars
comments

Rain Tab

   
Hey, i decided to do this song that is unreleased.  Great song, but i do not
have the verse.  If someone else could do it that would be great, also if someone
else could do "meaningless" that would be great thanks

- scott


Tuning: Drop D (Db Ab Db Gb Bb Eb)


   intro:   timing is a bit off (the 7 in parathesis in not sure about)
eb|-------------------------------------------------------------------------|
Bb|-----------------------8-8-8--7-8-7-0------------------------------------|
Gb|---7---7----8/9-9-9--(7)-------------------------------------------------|
Db|-----9---9---------------------------------------------------------------|
Ab|-------------------------------------------------------------------------|
Db|-------------------------------------------------------------------------|


first chorus  x4
eb|-------------------------------------------------------------------------|
Bb|-------------------------------------------------------------------------|
Gb|-----------------------------22------------------------------------------|
Db|---9--9-99---8--8-88---222---22------------------------------------------|
Ab|---9--9-99---8--8-88---222---00------------------------------------------|
Db|---9--9-99---8--8-88---222-----------------------------------------------|

[ Tab from: http://www.guitartabs.cc/tabs/s/smile_empty_soul/rain_tab.html ]
 prechorus of second chorus  (you feed me lies)
eb|-------------------------------------------------------------------------|
Bb|-------------------------------------------------------------------------|
Gb|-------------------------------------------------------------------------|
Db|---9-9-9---10-10-10---12-12-12---12-12-12-11-----------------------------|
Ab|---9-9-9---10-10-10---12-12-12---10-10-10--9-----------------------------|
Db|---9-9-9---10-10-10---12-12-12-------------------------------------------|

   chorus
eb|-------------------------------------------------------------------------|
Bb|-------------------------------------------------------------------------|
Gb|-----------------------------22------------------------------------------|
Db|---9--9-99---8--8-88---222---22------------------------------------------|
Ab|---9--9-99---8--8-88---222---00------------------------------------------|
Db|---9--9-99---8--8-88---222-----------------------------------------------|

Bridge (you win somehow, you bring me down)
eb|-------------------------------------------------------------------------|
Bb|-------------------------------------------------------------------------|
Gb|---------------------------------22--------------------------------------|
Db|---9--9-99---12--12-1212---222---22--------------------------------------|
Ab|---9--9-99---12--12-1212---222---00--------------------------------------|
Db|---9--9-99---12--12-1212---222-------------------------------------------|


intro
verse
chorus
verse
prechorus
chorus
bridge
chorus
verse riff
Comments