Smile Empty Soul - Radio In A Hole Chords & Tabs

 

Radio In A Hole Chords & Tabs

Smile Empty Soul Chords & Tabs

Version: 1 Type: Tab 0 ratings
1 star 2 stars 3 stars 4 stars 5 stars
comments

Radio In A Hole Tab

   
 ------------------------------------------------------------------------------
                   Radio in a Hole : Smile Empty Soul      
 ------------------------------------------------------------------------------

 Tabbed by:Matt Berger
 Email:fullyunderstand@yahoo.com 
 
 / = Slide up
 \ = Slide down
 p.m...... = palm mute
 ~ = hold on to note
 
 Tuning:C#,G#,C#,F#,A#,D# 

   [INTRO]
 C#[---------------------------------------------------------------------------]
 G#[---------------------------------------------------------------------------]
 C#[-------------------------REPEAT 4x-----------------------------------------]
 F#[-2-2-4/2\4/2-2-2-2-0-------------------------------------------------------]
 A#[-2-2---------2-2-2-0-------------------------------------------------------]
 D#[-2-2---------2-2-2-0-------------------------------------------------------]
[ Tab from: http://www.guitartabs.cc/tabs/s/smile_empty_soul/radio_in_a_hole_tab.html ]
   [VERSE 1&2]
 C#[-------------------------]-------------------------------------------------]
 G#[-------------------------]-------------------------------------------------]
 C#[---------------REPEAT-2x-]-------------------------------------------------]
 F#[-------------------------]-22-xx-22-xx-22-x-22/4----4444---2222---00000000-]
 A#[-------------------------]-22-xx-22-xx-22-x-22/x---------------------------]
 D#[-2-2--2-2--2-2--2-2--2-0-]-22-xx-22-xx-22-x-22/4-2-2----2-2----2-2---------]
 P.M.. .  . .  . .  . .  . .                         . .    . .    . . 
   [CHORUS]
 C#[---------------------------------------------------------------------------]
 G#[--------------------------------REPEAT 4x----------------------------------]
 C#[-------------------77777777------------------------------------------------]
 F#[-2-2-2-0--2-2-2-0--77777777------------------------------------------------]
 A#[-2-2-2-0--2-2-2-0--55555555------------------------------------------------]
 D#[-2-2-2-0--2-2-2-0--55555555------------------------------------------------]
  
   [Brigde w/effect pedel]   
 C#[---------------------------------------------------------------------------]
 G#[---------------------------------------------------------------------------]
 C#[---------------------------------------------------------------------------]
 F#[-5~~~~2~~~~5~~~~2-PAUSE-5~~~~2~~~~5~~~~2-PAUSE-----------------------------]
 A#[---------------------------------------------------------------------------]
 D#[---------------------------------------------------------------------------]
 
  [ENDING]
 C#[---------------------------------------------------------------------------
 G#[---------------------------------------------------------------------------
 C#[---------------------------------------------------------------------------
 F#[-2-2-4/2\4/2-2-2-2-0--2-2-4/2\4/2------------2-2-4444-2-2-2222-2-2-0000----
 A#[-2-2---------2-2-2-0--2-2--------------------2-2------2-2------2-2------2-2
 D#[-2-2---------2-2-2-0--2-2---------2-2-2-0----2-2------2-2------2-2------2-2
 P.M.                                 . . . .   
   ----------------------------------------------------------------------------]
   ----------------------------------------------------------------------------]
   ----------------------------------------------------------------------------]
   -----2-2-4444-2-2-2222-2-2-0000-PAUSE--2-2--2-2--2-2--2-2~~-2---------------]
   2-0--2-2------2-2------2-2------PAUSE--2-2--2-2--2-2--2-2~~-2---------------]
   2-0--2-2------2-2------2-2------PAUSE--2-2--2-2--2-2--2-2~~-2---------------]

 INTRO
 VERSE 
 CHORUS
 INTRO,(2x)
 VERSE 
 CHORUS
(BASS PART)
 BRIDGE
 CHORUS
 ENDING
Comments