Smile Empty Soul - Radio In A Hole Chords & Tabs

 

Radio In A Hole Chords & Tabs

Smile Empty Soul Chords & Tabs

Version: 1 Type: Bass Tab 0 ratings
1 star 2 stars 3 stars 4 stars 5 stars
comments

Radio In A Hole Bass Tab

Radio in a hole
intro
F# |------------------------------------------------|
C# |----4/2/4/2-------------------------------------|
G# |------------------------------x4----------------|
C# |-22---------222-0-------------------------------|

Verse part 1
F# |-------------------------------|
C# |-----------------------------x2|
G# |-------------------------------|
C# |-2-2---2-2---2-2---2-2---2-0---|





Verse part 2
F# |-----------------------------------------------------------------|
C# |---------------------------2222-----4444-----00000000------------|
G# |-----------------------------------------------------------------|
C# |-22-xx-22-xx-22-x-22/4--22------22-------22----------------------|
[ Tab from: http://www.guitartabs.cc/tabs/s/smile_empty_soul/radio_in_a_hole_btab.html ]
Chorus
F# |--------------------------------------------------------|
C# |--------------------------------------------------------|
G# |------------------------------x4------------------------|
C# |-222-0--222-0--55555555---------------------------------|
 
Intro x2
Verse
Chorus

he only plays half of this on the fifth time
Bridge
F# |------------------------------------------------|
C# |------444---------000---------------------------|
G# |-------------------------------------x10--------|
C# |-2h444------4h222-------------------------------|

Intro 

Ending
  -------------------------------------------------------------------------]
  ---------4444-----2222-----0000------------------------------------------]
  -------------------------------------------------------------------------]
  -2-0--2-2------2-2------2-2------PAUSE--2-2--2-2--2-2--2-2~~-2-----------]
Comments