Smile Empty Soul - Nowhere Kids Chords & Tabs

 

Nowhere Kids Chords & Tabs

Smile Empty Soul Chords & Tabs

Version: 3 Type: Tab 0 ratings
1 star 2 stars 3 stars 4 stars 5 stars
comments

Nowhere Kids Tab

Smile Empty Soul - Nowhere Kids

Drop c or D (Which ever sound good to you)

Intro: (Clean)

E ----------------------------------------------------------------------
B ----------------------------------------------------------------------
G ----------------------------------------------------------------------
D -5h7-7--5h7-7-7--7~9-9-9-9~10-10-10-10~5-5-5-5-5-5-5-5--5-5-5-5~2-2-2-
A -5h7-7--5h7-7-7--5~7-7-7-7~8--8--8--8~~3-3-3-3-3-3-3-3--5-5-5-5~2-2-2-
D -5h7-7--5h7-7-7----------------------------------------5-5-5-5~2-2-2-

E ----------------------------------------------------------------------
B ----------------------------------------------------------------------
G ----------------------------------------------------------------------
D -5h7-7--5h7-7-7--7~9-9-9-9~10-10-10-10~5-5-5-5-5-5-5-5--5-5-5---------
A -5h7-7--5h7-7-7--5~7-7-7-7~8--8--8--8~~3-3-3-3-3-3-3-3--5-5-5---------
D -5h7-7--5h7-7-7-----------------------------------------5-5-5---------

(Distortion)

E ----------------------------------------------------------------------
B ----------------------------------------------------------------------
G ----------------------------------------------------------------------
D -5h7-7--5h7-7-7--7~9-9-9-9~10-10-10-10~5-5-5-5-5-5-5-5--5-5-5-5~2-2-2-
A -5h7-7--5h7-7-7--5~7-7-7-7~8--8--8--8~~3-3-3-3-3-3-3-3--5-5-5-5~2-2-2-
D -5h7-7--5h7-7-7-----------------------------------------5-5-5-5~2-2-2-

E ----------------------------------------------------------------------
B ----------------------------------------------------------------------
G ----------------------------------------------------------------------
D -5h7-7--5h7-7-7--7~9-9-9-9~10-10-10-10~5-5-5-5-5-5-5-5--5-5-5---------
A -5h7-7--5h7-7-7--5~7-7-7-7~8--8--8--8~~3-3-3-3-3-3-3-3--5-5-5---------
D -5h7-7--5h7-7-7-----------------------------------------5-5-5---------


Verse (Clean)

E -3--------------------       E -------------------------------
B --3~2-----------------        B ------------------------------
G ----------------------        G ------------------------------
D -----------5h7-7--5h7- x2     D -4~5-5-5-5-5-5-5-5--5-5-5-5---
A -----------5h7-7--5h7-        A -2~3-3-3-3-3-3-3-3--5-5-5-5---
D -----------5h7-7--5h7-        D --------------------5-5-5-5-0-

Chorus (Distortion)

E ----------------------------------------------------------------------
B ----------------------------------------------------------------------
G ----------------------------------------------------------------------
D -5h7-7--5h7-7-7--7~9-9-9-9~10-10-10-10~5-5-5-5-5-5-5-5--5-5-5-5~2-2-2- x4
A -5h7-7--5h7-7-7--5~7-7-7-7~8--8--8--8~~3-3-3-3-3-3-3-3--5-5-5-5~2-2-2-
D -5h7-7--5h7-7-7-----------------------------------------5-5-5-5~2-2-2-

Interludge (Distortion)

E --------------------------------------------------------------------------
B --------------------------------------------------------------------------
G ----------5-5-5-5~4-4-0-------------5-5-5-5~4-4-0-----------5-5-5-5~4-4-0-
D -5-7-7-7--x-x-x-x~x-x-0--7-7-7-7-7--x-x-x-x~x-x-0--5-7-7-7--x-x-x-x~x-x-0-
A -5-7-7-7--3-3-3-3~2-2----7-7-7-7-7--3-3-3-3~2-2----5-7-7-7--3-3-3-3~2-2---
D -5-7-7-7-----------------7-7-7-7-7-----------------5-7-7-7----------------

E ----------------------------------
B ----------------------------------
G ----------------------------------
D -7-7-7-7--10-10-10-10-10--5-5-5-5-
A -7-7-7-7--10-10-10-10-10--5-5-5-5-
D -7-7-7-7--10-10-10-10-10--5-5-5-5-

Verse 2 (Clean)

E ----------------------------------------------------------------------
B ----------------------------------------------------------------------
G ----------------------------------------------------------------------
D -5h7-7--5h7-7-7--7~9-9-9-9~10-10-10-10~5-5-5-5-5-5-5-5--5-5-5-5~2-2-2-
A -5h7-7--5h7-7-7--5~7-7-7-7~8--8--8--8~~3-3-3-3-3-3-3-3--5-5-5-5~2-2-2-
D -5h7-7--5h7-7-7-----------------------------------------5-5-5-5~2-2-2-
[ Tab from: http://www.guitartabs.cc/tabs/s/smile_empty_soul/nowhere_kids_tab_ver_3.html ]
E ----------------------------------------------------------------------
B ----------------------------------------------------------------------
G ----------------------------------------------------------------------
D -5h7-7--5h7-7-7--7~9-9-9-9~10-10-10-10~5-5-5-5-5-5-5-5--5-5-5---------
A -5h7-7--5h7-7-7--5~7-7-7-7~8--8--8--8~~3-3-3-3-3-3-3-3--5-5-5---------
D -5h7-7--5h7-7-7-----------------------------------------5-5-5---------

E -3----------------------------------------------
B --3-2-------------------------------------------
G ------------------------------------------------
D --------5h7-7-7-7--4~5-5-5-5-5-5-5-5--5-5-5-5---
A --------5h7-7-7-7--2~3-3-3-3-3-3-3-3--5-5-5-5-0-
D --------5h7-7-7-7---------------------5-5-5-5-0-

Chorus (Distortion)

E ----------------------------------------------------------------------
B ----------------------------------------------------------------------
G ----------------------------------------------------------------------
D -5h7-7--5h7-7-7--7~9-9-9-9~10-10-10-10~5-5-5-5-5-5-5-5--5-5-5-5~2-2-2- x8
A -5h7-7--5h7-7-7--5~7-7-7-7~8--8--8--8~~3-3-3-3-3-3-3-3--5-5-5-5~2-2-2-
D -5h7-7--5h7-7-7-----------------------------------------5-5-5-5~2-2-2-

Interludge (Distortion)

E -------------------------------------------------------------------------
B -------------------------------------------------------------------------
G ----------5-5-5-5~4-4-0-----------5-5-5-5~4-4-0-----------5-5-5-5~4-4--0-
D -5-7-7-7--x-x-x-x~x-x-0--5-7-7-7--x-x-x-x~x-x-0--5-7-7-7--x-x-x-x~x-x--0-
A -5-7-7-7--3-3-3-3~2-2----5-7-7-7--3-3-3-3~2-2----5-7-7-7--3-3-3-3~2-2----
D -5-7-7-7-----------------5-7-7-7-----------------5-7-7-7-----------------

Bridge

E -----0-------0--0-------0----0-------0-----0-------0----0-0-0---0-0-0---0-0-0-
B ------0------0---0------0-----0------0------0------0----0-0-0---0-0-0---0-0-0-
G -------5--5--5----2--2--2------5--5--5-------2--2--2----2-2-----2-2-----2-2---
D ------------------------------------------------------------------------------ x2
A ---7-------------0------------7----------0-----------0-0-----0-0-----0-0------
D -7-7-----------3-3----------7-7--------3-3---------------------------3-3------ 

Pre-Chorus (Distortion)

E ------------------------------------------------------------------------------
B ------------------------------------------------------------------------------
G ------------------------------------------------------------------------------
D ------------------------------------------------------------------------------
A -5h7-7-7-7-7--5h7-7-7-7-7--5h7-7-7-7-7--5h7-7-7-7-7--5h7-7-7-7-7--5h7-7-7-7-7-
D -5h7-7-7-7-7--5h7-7-7-7-7--5h7-7-7-7-7--5h7-7-7-7-7--5h7-7-7-7-7--5h7-7-7-7-7-

E -------------------------------------------------------------------------
B -------------------------------------------------------------------------
G -------------------------------------------------------------------------
D -5h7-7-7-7-7--5h7-7-7-7-7--5h7-7-7-7-7--5h7-7-7-7-7--5h7-7-7-7-7--5h7-7-7-7-7-
A -5h7-7-7-7-7--5h7-7-7-7-7--5h7-7-7-7-7--5h7-7-7-7-7--5h7-7-7-7-7--5h7-7-7-7-7-
D -5h7-7-7-7-7--5h7-7-7-7-7--5h7-7-7-7-7--5h7-7-7-7-7--5h7-7-7-7-7--5h7-7-7-7-7-

Chorus (Distortion)

E ----------------------------------------------------------------------
B ----------------------------------------------------------------------
G ----------------------------------------------------------------------
D -5h7-7--5h7-7-7--7~9-9-9-9~10-10-10-10~5-5-5-5-5-5-5-5--5-5-5-5~2-2-2- x8
A -5h7-7--5h7-7-7--5~7-7-7-7~8--8--8--8~~3-3-3-3-3-3-3-3--5-5-5-5~2-2-2-
D -5h7-7--5h7-7-7-----------------------------------------5-5-5-5~2-2-2-

Interludge (Distortion)

E -------------------------------------------------------------------------
B -------------------------------------------------------------------------
G ----------5-5-5-5~4-4-0-----------5-5-5-5~4-4-0-----------5-5-5-5~4-4--0-
D -5-7-7-7--x-x-x-x~x-x-0--5-7-7-7--x-x-x-x~x-x-0--5-7-7-7--x-x-x-x~x-x--0-
A -5-7-7-7--3-3-3-3~2-2----5-7-7-7--3-3-3-3~2-2----5-7-7-7--3-3-3-3~2-2----
D -5-7-7-7-----------------5-7-7-7-----------------5-7-7-7-----------------

Outro


E ------------------------------------------
B ------------------------------------------
G ------------------------------------------
D -7--10--3--5--1--(let go and let it ring)-
A -7--10--3--5--1--(let go and let it ring)-
D -7--10--3--5--1--(let go and let it ring)-
Comments