Smile Empty Soul - I Want My Life Chords & Tabs

 

I Want My Life Chords & Tabs

Smile Empty Soul Chords & Tabs

Version: 1 Type: Tab 1 rating
1 star 2 stars 3 stars 4 stars 5 stars
comments

I Want My Life Tab

artist: smile empty soul
song: i want my life


tuning down half a step, drop d


intro / chorus

eb---------0-------3---2-----2------------------------------
Bb---3---3---3-----3---3---3----1-----1p0-0---0--5-----3----
Gb-----2-------2-----0---0--------0---------0----0---0------
Db---0-----------0---------------------------------0--------
Ab------------------------------3---0-----------------------
Db----------------------------------------------------------


eb----------0---------3--2-2-2-2-------------------------------------
Bb------3-----3-------3--3-3-3-3---1---1---1p0-0---0-----3h5p3--3----
Gb--------2-----2-----0--0-0-0-0-----0---0-------0-----0-------------
Db----------------0--2---0-0-0-0-------------------------------------
Ab--2-2----------------------------0-----------------3---------------
Db-------------------------------------------------------------------


verse

gtr 1

eb-----------------------------
Bb-----------------------------
Gb-----------------------------
Db---2---7---9---10---7---9----
Ab---2---7---9---10---7---9----
Db---2---7---9---10---7---9----

gtr 2

eb-----------------------------
Bb-------------------555-5/7-7-
Gb-----------------------------
Db-----------------------------
Ab-----------------------------
Db-----------------------------


pre-chorus 

eb--------------------
Bb--------------------
Gb------7-------------
Db---2--7--10--7--5---
Ab---2--5--10--7--5---
Db---2-----10--7--5---


chorus

verse 2, same as 1


bridge
[ Tab from: http://www.guitartabs.cc/tabs/s/smile_empty_soul/i_want_my_life_tab.html ]
eb--3-5-7-5-3--2-3-5-3-2--0------------
Bb--------------------------3-1-0------
Gb-------------------------------------  
Db--------------------------------5-4--
Ab-------------------------------------
Db-------------------------------------

eb--3-5-7-5-3--2-3-5-3-2--0------------  
Bb--------------------------3-1-0------  
Gb-------------------------------------  
Db--------------------------------5-4--  
Ab-------------------------------------  
Db-------------------------------------  


lead into outro

eb----------0--------3-3-3-3-2--2-2--------------------------------------
Bb------3-----3------3-3-3-3-3--3-3--1-1-1-1p0-0-0-0--5-5-5p3-3-3--3-3---
Gb--------2-----2----0-0-0-0-0--0-0--0-0-0-0---0-0-0--0-0-0-0-0-0--0-0---
Db----------------0------------------0-0-0-0---0-0-0---------------------
Ab--2-2------------------------------------------------------------------
Db-----------------------------------------------------------------------



outro is basically a strumming version of the first half of the chorus
try to strum in a way that maintains the same pattern as the chorus, something like:

eb----------0--0------3-3-3-3-2--2-2--------------------------------------
Bb------3-3-3--3-3----3-3-3-3-3--3-3--1-1-1-1p0-0-0-0--5-5-5p3-3-3--3-3---
Gb--2-2-2-2------2-2--0-0-0-0-0--0-0--0-0-0-0---0-0-0--0-0-0-0-0-0--0-0---
Db--0-0------------0------------------0-0-0-0---0-0-0---------------------
Ab------------------------------------------------------------------------
Db------------------------------------------------------------------------



tabbed by matt rosengarten
maros5@student.monash.edu
Comments