Smile Empty Soul - I Want My Life Chords & Tabs

 

I Want My Life Chords & Tabs

Smile Empty Soul Chords & Tabs

Version: 1 Type: Bass Tab 0 ratings
1 star 2 stars 3 stars 4 stars 5 stars
comments

I Want My Life Bass Tab

Band- Smile Empty Soul
Song- I Want My Life

G-------------------|
D-------------------|
A-------------------|
E-0-2-4-2-4-6-4-2---|

Intro pt 2

G------------------------------------------|
D------------------------------------------|
A------------------------------------------|
E-0-2-4-2-0-2-4-0-2-4-6-\-4-2-0-2-4-2------|

Verse

G------------------------------|
D------------------------------|
A------------------------------|    repeat until verse ends
E2222-4444-6666-666-4---------|

Pre chorus
[ Tab from: http://www.guitartabs.cc/tabs/s/smile_empty_soul/i_want_my_life_btab.html ]
G--------------------------------------|
D--------------------------------------|
A--------------------------------------|
E-7-6-\-2 (some other notes) 7-6-\-2--|

Chorus is Intro 2

G------------------------------------------|
D------------------------------------------|
A------------------------------------------|
E-0-2-4-2-0-2-4-0-2-4-6-\-4-2-0-2-4-2------|

Verse

Chorus

Endish part

G-------------------------------|
D-------------------------------|
A-------------------------------|
E-0-2-4-2-0-2-4-0-2-4-6-4-2-----|

Outro play intro 2 a lot

G------------------------------------------|
D------------------------------------------|
A------------------------------------------|
E-0-2-4-2-0-2-4-0-2-4-6-\-4-2-0-2-4-2------|
Comments