Smile Empty Soul - Gods Army Chords & Tabs

 

Gods Army Chords & Tabs

Smile Empty Soul Chords & Tabs

Version: 1 Type: Tab

Gods Army Tab

         Intro/verse Play 10 times
Eb---------------------------------------------------------------------------|
Bb---------------------------------------------------------------------------|
Db---5---5----7----7----9---9----7---7---------------------------------------|
Gb-0---0----0----0----0---0----0---0-----------------------------------------|
Bb---------------------------------------------------------------------------|
D----------------------------------------------------------------------------|
[ Tab from: http://www.guitartabs.cc/tabs/s/smile_empty_soul/gods_army_tab.html ]
                    Chorus
Eb-----------------------------------------------------------------------|
Bb-----------------------------------------------------------------------|
Db--5-5-x--5555--5---7-7-x--7777--7--------------------------------------|
Gb--5-5-x--5555--5---7-7-x--7777--7--------------------------------------|
Bb--3-3-x--3333--3---5-5-x--5555--5--------------------------------------|
D------------------------------------------------------------------------|

                   Little Piece after chorus
Eb-----------------------------------------------------------------|
Bb-----------------2-----------------------------------------------|
Db-9x9--77--55-----2-----------------------------------------------|
Gb-9x9--77--55--5--2-----------------------------------------------|
Bb-7x7--55--33--5--2-----------------------------------------------|
D---------------3--------------------------------------------------|

Thats about it just get the timing down and you will have it. I realize this is probably 
right but this is my first tab so i gave it a shot. Thank you!

         SMILE EMPTY SOUL ROCKS!!!