Smile Empty Soul - For You Chords & Tabs

 

For You Chords & Tabs

Smile Empty Soul Chords & Tabs

Version: 1 Type: Tab 0 ratings
1 star 2 stars 3 stars 4 stars 5 stars
comments

For You Tab

Smile Empty Soul - For You 

Intro (clean)
eb|---------------------------------
Bb|---------------------------------
Gb|------------------10--9--7--5----
Db|---10--9--7--5----10--9--7--5----
Ab|---8---7--5--3----8---7--5--3----
Eb|-0--------------0----------------
 
[ Tab from: http://www.guitartabs.cc/tabs/s/smile_empty_soul/for_you_tab.html ]
 Verse/Interlude (clean)
eb|---------------------------------
Bb|---------------------------------
Gb|----10--9--7--5----------10--5---
Db|----10--9--7--5--0--5----10--5---
Ab|----8---7--5--3--0--5----8---3---
Eb|--0--------------0--5--0---------
p.m.................................

 Chorus (clean)
eb|---------------------------------
Bb|---------------------------------
Gb|-3-------------------------------
Db|-3--0--3--5----------------------
Ab|-1--0--3--5----------------------
Eb|----0--3--5----------------------


 Outro (dist.)
eb|---------------------------------
Bb|---------------------------------
Gb|------------------10--9--7--5----
Db|---10--9--7--5----x---x-x--x----
Ab|---8---7--5--3----8---7--5--3-h5-
Eb|-0--------------0----------------


Pretty Simple you can listen for strumming pattern
Comments