Smile Empty Soul - Finding Myself Chords & Tabs

 

Finding Myself Chords & Tabs

Smile Empty Soul Chords & Tabs

Version: 4 Type: Tab 0 ratings
1 star 2 stars 3 stars 4 stars 5 stars
comments

Finding Myself Tab

   
I really am not sure of this...
comments:monmon_0914@yahoo.com
Verse: Em - G - D - Bm
Chorus: G - Em - D - Bm


Intro
   Em        G         D         Bm
e|-0-------|-3-------|-0-------|-1-------|
b|---2-----|---2-----|---0-----|---3-----|
g|-----2---|-----0---|-----0---|-----3---|
d|-------0-|-------0-|-------2-|-------2-|
a|---------|---------|---------|---------|
e|---------|---------|---------|---------|
[ Tab from: http://www.guitartabs.cc/tabs/s/smile_empty_soul/finding_myself_tab_ver_4.html ]
Bridge
   Em        G         D         Bm
e|-0----------|-3---------|-0---------|-1---------|
b|---2--------|---2-------|---0-------|---3-------|
g|-----2----2-|-----0---0-|-----0---2-|-----3---3-|
d|-------0----|-------0---|-------4---|-------2---|
a|------------|-----------|-----------|-----------|
e|------------|-----------|-----------|-----------|


Verse:

I don't care anymore if i let you down
I believe that i need to be free
i'm so used to my life with you around
i don't know anyomre the real me

Chorus:

And i thought that i found myself today
and i thought that i had control
all the change in my life just fell away
for a moment i didn't need you

Verse:

All these tears that i've cried you must be tired
of taking care of me but
is what you do best and im a liar
cause really is what i need

(Chorus)

Someone Like You
Someone like me
maybe its change
that sets you free
free

Chorus x2
Comments