Smile Empty Soul - Finding Myself Chords & Tabs

 

Finding Myself Chords & Tabs

Smile Empty Soul Chords & Tabs

Version: 1 Type: Tab 0 ratings
1 star 2 stars 3 stars 4 stars 5 stars
comments

Finding Myself Tab

   
Tabbed by: MetallicaRoks
Email: Metallica___666@hotmail.com

Tuning: D A D G B E

     Intro: Play Twice

e|--------------------------------------------------------------------------
B|--------------------------------------------------------------------------
G|-------------3-2-------------0-2----------2--------------5---7------------
D|------------------0--------------------0----------------------------------
A|------5------------------3-----------0-------/---8----8-------------------
D|----5------------------3-----------0---------/---8------------------------

     Verse x4:   Strumming(listen for timing) 

e|--------------------------------------------------------------------------
B|--------------------------------------------------------------------------
G|--------------------------------------------------------------------------
D|----7-------5-----0----10-------------------------------------------------
A|----5-------3-----0----8--------------------------------------------------
D|----5-------3-----0----8--------------------------------------------------

     x1 Chorus: Strumming (listen for timing) Play twice

e|-------------------------------------------------------------------------|
B|-------------------------------------------------------------------------|
G|-------------------------------------------------------------------------|
D|----7------10-----0-----5-----7-----10-----0-----3-----------------------|
A|----5-------8-----0-----3-----5-----8------0-----1-----------------------|
D|----5-------8-----0-----3-----5-----8------0-----1-----------------------|

     Play Once

e|-------------------------------------------------------------------------|
B|-------------------------------------------------------------------------|
G|----------3-2------------0-2-------2---------------5--7------------------|
D|---------------0-----------------0---------------------------------------|
A|-----5----------------2---------0-------/---8---8------------------------|
D|---5----------------2---------0---------/---8----------------------------|

     Verse x4: Strummming

e|-------------------------------------------------------------------------|
B|-------------------------------------------------------------------------|
G|-------------------------------------------------------------------------|
D|-----7------5-----0-----10-----------------------------------------------|
A|-----5------3-----0-----8------------------------------------------------|
D|-----5------3-----0-----8------------------------------------------------|

       Chorus x1: Play twice during chorus
[ Tab from: http://www.guitartabs.cc/tabs/s/smile_empty_soul/finding_myself_tab.html ]
e|-------------------------------------------------------------------------|
B|-------------------------------------------------------------------------|
G|-------------------------------------------------------------------------|
D|----7-----10----0----5----7----10---0----3-------------------------------|
A|----5-----8-----0----3----5----8----0----1-------------------------------|
D|----5-----8-----0----3----5----8----0----1-------------------------------|

    play once before singing

e|-------------------------------------------------------------------------|
B|-------------------------------------------------------------------------|
G|-------------------------------------------------------------------------|
D|-------------7--3---------7--3---------7--3-----------8--7---------------|
A|-------5--------------5------------5------------5------------------------|
D|-----5--------------5------------5------------5--------------------------|

   play during singing

e|-------------------------------------------------------------------------|
B|-------------------------------------------------------------------------|
G|------------7--3---------------------------------------------------------|
D|-------------------x8-----------------7----5------0-----10---------------|
A|-------5------------------------------5----3------0-----8----------------|
D|-----5--------------------------------5----3------0-----8----------------|

    Chorus: Play twice(This four times during)

e|-------------------------------------------------------------------------|
B|-------------------------------------------------------------------------|
G|-------------------------------------------------------------------------|
D|-----7-----10---0----5----7-----10----0----3-----------------------------|
A|-----5-----8----0----3----5-----8-----0----1-----------------------------|
D|-----5-----8----0----3----5-----8-----0----1-----------------------------|


                   
                        Play first intro twice

Fix Whatever you think is wrong


| /  slide up
| \  slide down
| h  hammer-on
| p  pull-off
| ~  vibrato
| +  harmonic
| x  Mute note



Verse:

I don't care anymore if i let you down
I believe that i need to be free
i'm so used to my life with you around
i don't know anyomre the real me

Chorus:

And i thought that i found myself today
and i thought that i had control
all the change in my life just fell away
for a moment i didn't need you

Verse:

All these tears that i've cried you must be tired
of taking care of me but
is what you do best and im a liar
cause really is what i need

(Chorus)



Someone Like You
Someone like me
maybe its change
that sets you free
free

Chorus x2

   
============================================================================
Comments