Smile Empty Soul - Every Sunday Chords & Tabs

 

Every Sunday Chords & Tabs

Smile Empty Soul Chords & Tabs

Version: 2 Type: Tab 0 ratings
1 star 2 stars 3 stars 4 stars 5 stars
comments

Every Sunday Tab

Smile Empty Soul
"Every Sunday"
[ Tab from: http://www.guitartabs.cc/tabs/s/smile_empty_soul/every_sunday_tab_ver_2.html ]
Intro
e|------------------------------------|
B|------------------------------------|
G|------------------------------------|
D|--6/--3---3--4-4-3-----6/--3---3--4-|x1
A|4-4/1-1---3--4-4-3---4-4/1-1---3--4-| 
D|--------1--------------------1------|


Verse
e|------------------------------------|
B|------------------------------------|
G|------------------------------------|
D|------------------------------------|x4
A|4--4-1--1---------------------------| 
D|----------1-------------------------|
Comments