Smile Empty Soul - Every Sunday Chords & Tabs

 

Every Sunday Chords & Tabs

Smile Empty Soul Chords & Tabs

Version: 1 Type: Tab 0 ratings
1 star 2 stars 3 stars 4 stars 5 stars
comments

Every Sunday Tab

   
Artist: Smile Empty Soul
Song: Every Sunday
Album: Smile Empty Soul
Tabbed by: Joe p

this is a pretty sweet song and i saw there were no tabs for it so i put one up

Tuning: Db Ab Db Gb Bb Eb 

intro
eb|-------------------------------------------------------------|
Bb|----0----------0-------------------0----------0--------------|
Gb|----x----------x-------6-7-6-------x----------x--------------|
Db|7---7--7/4-4---4-4/5-4-6-7-6---7---7--7/4-4---4-4/5-4--------| x1
Ab|5-5-5--5/2-2-2-2-2/3-4---------5-5-5--5/2-2-2-2-2/3-4--------|
Db|---------------------4------------------------------4--------|
[ Tab from: http://www.guitartabs.cc/tabs/s/smile_empty_soul/every_sunday_tab.html ]
verse
eb|-------------------------------------------------------|
Bb|-------------------------------------------------------|
Gb|-------------------------------------------------------|
Db|-7---4---4---------------------------------------------|x4
Ab|-5-5-2-2-4---------------------------------------------| 
Db|---------4---------------------------------------------|

chorus
eb|-------------------------------------------------------|
Bb|-------------------------------------------------------|
Gb|---------------------------------------------------777-|
Db|00-xxxx-3/4-44-3/4-44-2h3h4-44-2h3h4-44-2h3h4-44-2-777-|
Ab|00-xxxx-1/2-22-1/2-22-2h3h4-44-2h3h4-44-2h3h4-44-2-555-|
Db|00-xxxx---------------2h3h4-44-2h3h4-44-2h3h4-44-2-----|


| /  slide up
| \  slide down
| h  hammer-on
| p  pull-off
| ~  vibrato
| +  harmonic
| x  Mute note
Comments