Smile Empty Soul - Eraser Chords & Tabs

 

Eraser Chords & Tabs

Smile Empty Soul Chords & Tabs

Version: 3 Type: Tab 0 ratings
1 star 2 stars 3 stars 4 stars 5 stars
comments

Eraser Tab

   
i had my guitar teacher who plays drums and bass tade out the guitar in this song and
he was the bass for P.O.D. (i dont realy like that band) b4 they got famious (if
thats how u spell it). im preaty sure that these tabs are 100% correct. u can
make corrections if u want but im not gunna put my email in this cause i dont
want anymore junk mail then i already got. now 4 the tabs...i dont have solo yet but
ill add that later(if i feal like it)

tunning (low to high) Eb Ab Db Bb Eb



intro
|------------------------------------|
|------------------------------------|
|------------------------------------|
|-5-5-5---------------------xx-3-3-3-| x2
|-3-3-3-xx-6-6-6-6-xx-3-3-3-xx-1-1-1-|
|-------xx-4-4-4-4-xx-1-1-1----------|


verse
|------------------------------------|---------|
|------------------------------------|---------|
|------------------------------------|-8-10-11-|
|-5-5-5---------------------xx-3-3-3-|-8-10-11-|
|-3-3-3-xx-6-6-6-6-xx-3-3-3-xx-1-1-1-|-6-8--9--|
|-------xx-4-4-4-4-xx-1-1-1----------|---------|
          above x4                     above x4

[ Tab from: http://www.guitartabs.cc/tabs/s/smile_empty_soul/eraser_tab_ver_3.html ]
chorus(distortion)
|---------------------------------------------------------|
|---------------------------------------------------------|
|---------------------------------------------------------|
|-5-5-5---------------------xx-3-3-3----------------------| x4
|-3-3-3-xx-6-6-6-6-xx-3-3-3-xx-1-1-1----------------------|
|-------xx-4-4-4-4-xx-1-1-1-------------------------------|


verse2
|------------------------------------|---------|
|------------------------------------|---------|
|------------------------------------|-8-10-11-|
|-5-5-5---------------------xx-3-3-3-|-8-10-11-|
|-3-3-3-xx-6-6-6-6-xx-3-3-3-xx-1-1-1-|-6-8--9--|
|-------xx-4-4-4-4-xx-1-1-1----------|---------|
            above x6                  above x4


chorus(distortion)
|---------------------------------------------------------|
|---------------------------------------------------------|
|---------------------------------------------------------|
|-5-5-5---------------------xx-3-3-3----------------------| x4
|-3-3-3-xx-6-6-6-6-xx-3-3-3-xx-1-1-1----------------------|
|-------xx-4-4-4-4-xx-1-1-1-------------------------------|


thats all i no 4 now...ill post the rest when i no it.buy
Comments