Smile Empty Soul - Dont Need You Chords & Tabs

 

Dont Need You Chords & Tabs

Smile Empty Soul Chords & Tabs

Version: 1 Type: Tab

Dont Need You Tab

   
Band: Smile Empty Soul
Song: Don't Need You
Album: Anxiety (2005)

C Sharp (C#,G#,C#,F#,Bb,Eb)
Sorry no solo


Intro/ Verse
D# -----------------------------------------------------|
A# -----------------------------------------------------|
F# ---------------------555------------------------555--|
C# 7777----5555-33333---555---0000----2222-33333---555--|(3x)
G# 7777----5555-33333---333---0000----2222-33333---333--|
C# 7777----5555-33333---------0000----2222-33333--------|


Pre Chorus
D# ---------------------------------------------------------------|
A# ---------------------------------------------------------------|
F# ---------------------------------------------------------------|
C# 33333333--------55555555--------00000000--------3-3-3-3-3------|
G# 33333333--------55555555--------00000000--------3-3-3-3-3------|
C# 33333333--------55555555--------00000000--------3-3-3-3-3------|
                                                       ^play loud

Chorus
D# ---------------------------------------------------------------|
A# ---------------------------------------------------------------|
F# ------------------------------------------------5555-----------|
C# 7777-----5555---33333333--------00000000--------5555------5555-|(2x)
G# 7777-----5555---33333333--------00000000--------3333------5555-|
C# 7777-----5555---33333333--------00000000------------------5555-|


Verse
D# ---------------------------------------------------------------|
A# ---------------------------------------------------------------|
F# ------------------------555-----------------------------555----|
C# 7777----5555----33333---555-----0000----2222----33333---555----|(3x)
G# 7777----5555----33333---333-----0000----2222----33333---333----|
C# 7777----5555----33333-----------0000----2222----33333----------|

[ Tab from: http://www.guitartabs.cc/tabs/s/smile_empty_soul/dont_need_you_tab.html ]
Pre Chorus
D# ---------------------------------------------------------------|
A# ---------------------------------------------------------------|
F# ---------------------------------------------------------------|
C# 33333333--------55555555--------00000000--------3-3-3-3-3------|
G# 33333333--------55555555--------00000000--------3-3-3-3-3------|
C# 33333333--------55555555--------00000000--------3-3-3-3-3------|
                                                       ^play loud

Chorus
D# ---------------------------------------------------------------|
A# ---------------------------------------------------------------|
F# ------------------------------------------------5555-----------|
C# 7777-----5555---33333333--------00000000--------5555------5555-|(4x)
G# 7777-----5555---33333333--------00000000--------3333------5555-|
C# 7777-----5555---33333333--------00000000------------------5555-|

Bridge part one
D# ---------------------------------------------------------------|
A# ---------------------------------------------------------------|
F# ----------------5---55----555----------------------------------|
C# 3---33----333---5---55----555---5---55-----555--0---00----000--|(2x)
G# 3---33----333---3---33----333---5---55-----555--0---00----000--|
C# 3---33----333-------------------5---55-----555--0---00----000--|

Bridge part two (during solo)
D# ---------------------------------------------------------------|
A# ---------------------------------------------------------------|
F# ------------------------------------------------555------------|
C# 7777-----5555---33333333--------00000000--------5555----5555---|(2x)
G# 7777-----5555---33333333--------00000000--------3333----5555---|
C# 7777-----5555---33333333--------00000000----------------5555---|

Chorus
D# ---------------------------------------------------------------|
A# ---------------------------------------------------------------|
F# ------------------------------------------------5555-----------|
C# 7777-----5555---33333333--------00000000--------5555----5555---|(4x)
G# 7777-----5555---33333333--------00000000--------3333----5555---|
C# 7777-----5555---33333333--------00000000----------------5555---|


Outro
D# ---------------------------------------------------------------|
A# ---------------------------------------------------------------|
F# -------------------------555------------------------------555--|
C# -7777----5555----33333---555-----0000----2222----33333----555--|
G# -7777----5555----33333---333-----0000----2222----33333----333--|
C# -7777----5555----33333-----------0000----2222----33333---------|