Smile Empty Soul - Bright Side Chords & Tabs

 

Bright Side Chords & Tabs

Smile Empty Soul Chords & Tabs

Version: 1 Type: Tab

Bright Side Tab

Song: Bright Side
Artist: Smile Empty Soul
Album: Anxiety
Tab by: Adam Laczo (adam.laczo@gmail.com)

Tuning Drop D Flat

X = Mute

Intro: x5
Break everything you love...
E----------------------------------------------------------|
B----------7-7h8--------7-7h8--------7-7h8--------7-7h8----|
G----------X-X----------X-X----------X-X----------X-X------|
D----------------------------------------------------------|
A-----7-7-7--------7-7-7--------7-7-7--------7-7-7---------|
D----------------------------------------------------------|

E----------------------------------------------------------|
B----------------------------------------------------------|
G----------------------------------------------------------|
D-------5--5--7--7--0--0-----------------------------------|
A-------5--5--7--7--0--0-----------------------------------|
D-------5--5--7--7--0--0-----------------------------------|

Verse:
Kill everything inside....
E----------------------------------------------------------|
B----------------------------------------------------------|
G----------------------------------------------------------|
D---0h2--XXXX--0h2--5--------------------------------------|
A---0h2--XXXX--0h2--5--------------------------------------|
D---0h2--XXXX--0h2--5--------------------------------------|

[ Tab from: http://www.guitartabs.cc/tabs/s/smile_empty_soul/bright_side_tab.html ]
Looking at the bright side...
E----------------------------------------------------------|
B----------------------------------------------------------|
G----------------------------------------------------------|
D---7-5----------------------------------------------------|
A---7-5----------------------------------------------------|
D---7-5----------------------------------------------------|


Gimme just one more chance to think about it....
E----------------------------------------------------------|
B----------------------------------------------------------|
G----------------------------------------------------------|
D---10-5-0-------------------------------------------------|
A---10-5-0-------------------------------------------------|
D---10-5-0-------------------------------------------------|


Chorus:
Theres more to life than sad....
E----------------------------------------------------------|
B----------------------------------------------------------|
G----------------------------------------------------------|
D---2-5-0-10-----------------------------------------------|
A---2-5-0-10-----------------------------------------------|
D---2-5-0-10-----------------------------------------------|

Bridge:
E----------------------------------------------------------|
B---7-7h8-8--8h10-7--5--7----------------------------------|
G---X-X---X--X----X--X--X----------------------------------|
D---X-X---X--X----X--X--X----------------------------------|
A---7-7---10-10---5--3--5----------------------------------|
D---X-X---X--X----X--X--X----------------------------------|