Smile Empty Soul - Bottom Of The Bottle Chords & Tabs

 

Bottom Of The Bottle Chords & Tabs

Smile Empty Soul Chords & Tabs

Version: 1 Type: Tab 1 rating
1 star 2 stars 3 stars 4 stars 5 stars
comments

Bottom Of The Bottle Tab

06/22/03

Smile Empty Soul
----------------
Bottom of the Bottle 

This is not the clean intro. This is the 2nd part with distortion.
I also added the Chorus. If anyone can figure out the intro please
send it to me at torblanatlong@aol.com  Thank You.
DROP D Tunning-
------------------------------------------------------------------
------------------------------------------------------------------
------------------------------------------------------------------
-----------5------5--5-----------------------s-l-i-d-e------------
--2---0----3------3--3--5----7---7---7------7--9--7--5--0---------
--2---0-----------------5----7---7---7------7--9--7--5--0--REPEAT-

[ Tab from: http://www.guitartabs.cc/tabs/s/smile_empty_soul/bottom_of_the_bottle_tab.html ]
I do it for the drug
------------------------------------------------------------------
------------------------------------------------------------------
------------------------------------------------------------------
--------------------------------2-------5-------------------------
------------------2-----0-------0-------3-------------------------
------------------2-----0-------------------REPEAT----------------


and i
------------------------------------------------------------------
------------------------------------------------------------------
------------------------------------------------------------------
---------------------------2222222222222222-----------------------
---------------------------3333333333333333-----------------------
-----22222222---55555555------------------------------------------
Comments